Washya Tabs

Decadence

1 versions

TAB

            -----------------------------------------------------------------------------
                          Decadence - Washya 
-----------------------------------------------------------------------------
Tuning: Drop C (DAFCGC)
Intro
D|-----------------------------|
A|-----------------------------|
F|-----------------------------|
C|-----------------------------|
G|-------5-------------555-333-|
C|-0-3-2---5-3-1-3-1-0-555-333-|
PM . . .   . . . . . . ... ... 

Intro 2
D|-----------------------------|
A|-----------------------------|
F|-----------------------------|
C|-------7-------------777-555-|
G|-0-3-2-5-5-3-1-3-1-0-555-333-|
C|-0-3-2---5-3-1-3-1-0-555-333-|

Verses                         
D|--------------------------------|----------|
A|-----------------------------|----------|
F|------------------------8887-|-101010\9-|
C|------------------------6665-|-8-8-8-\7-|
G|----32-5-------------76----6665-|-8-8-8-\7-|
C|-65---------------------67-6665-|-8-8-8-\7-|
Pm .. .. .             .. .. 

Chorus
D|------------------------------------------|
A|------------------------------------------|
F|----------7-5-8-----------5555555-3333333-|
C|------3-2-x-x-x-----------3333333-1111111-|
G|------3-2-5-3-6-6-5-3-5-6-3333333-1111111-|
C|-//xx-3-2-------6-5-3-5-6-3333333-1111111-|
Pm                . . . . .    

Added On December 16th, 2013

SHARE

Comments

blog comments powered by Disqus

ADVERTISEMENT