Washya Tabs

Designed For Destruction

1 versions

TAB

            -----------------------------------------------------------------------------
                  Designed For Destruction - Washya
-----------------------------------------------------------------------------
Tuning: Drop C (DAFCGC)
Intro
D|-----------------------------------------|
A|-----------------------------------------|
F|-----------------------------------------|
C|-8\7-77------------1-----0-8\7-77------2-|
G|-6\5-55-3h55-1---1-----0---6\5-55-3h55-0-|
C|--------3h55-1-1-----0------------3h55---|

Verses
D|------------------------------------------------------------|
A|---------------------------------------------------------|
F|------------------------------------------------------------|
C|-0----------0--/9~-8~-----1-----3-0-----------------555555\111111-|
G|-0----------0-----------1-----1---0-----------------555555\111111-|
C|-0----------0---------1-----1-----0-----------------555555\111111-|
PM                                                    ************* 

Chorus
D|------------------------------------------------------------------------|
A|------------------------------------------------------------------------|
F|-1414-14-14-1111--11-11-7/9-9-99----------------------------------------|
C|---------------------------------55555555/88888888-33333333-----3-----2-|
G|-1212-12-12-9-9---9--9--5/7-7-77-55555555/88888888-33333333---3-----2---|
C|---------------------------------55555555/88888888-33333333-3-----2-----|

D|--------------------------------------------|
A|-------------------------------------------|
F|--------------------------------------------|
C|-----0-22222222-55555555-00000000--------------|
G|---0---22222222-55555555-00000000--------------|
C|-0-----22222222-55555555-00000000--------------|    

Added On December 16th, 2013

SHARE

Comments

blog comments powered by Disqus

ADVERTISEMENT