Washya Tabs

Destiny

1 versions

TAB

            -----------------------------------------------------------------------------
                          Destiny - Washya
-----------------------------------------------------------------------------
Tuning: Drop D (DADGBE)
Intro
E|---------------|
B|---------------|
G|---------------|
D|---------------|
A|-1-1-000-0-111-|
D|-1-1-000-0-111-|

Part 2/verses
E|----------------------------------------------|
B|----------------------------------------------|
G|----------------------------------------------|
D|-----1-----1----------------1-----------------|
A|-1-1-----1---000-0-111--1-1---1---0-000-1-1-0-|
D|-1-1---1-----000-0-111--1-1-----1-0-000-1-1-0-|

Chorus
E|----------------------------------------------------------------------|
B|----------------------------------------------------------------------|
G|-5-555-------------------3-333------------------5-555\3-333-----------|
D|-------------------------------22-------------------------------------|
A|-3-333-555-6-6666-1-1111-1-111-00-3-3333-0-0000-3-333\1-111-1-1-0-000-|
D|-------555-6-6666-1-1111----------3-3333-0-0000-------------1-1-0-000-|    

Added On December 16th, 2013

SHARE

Comments

blog comments powered by Disqus

ADVERTISEMENT