Washya Tabs

Devils Eye

1 versions

TAB

            ----------------------------------------------------------------------------------------------------------
                                  Devil's Eye - Washya
----------------------------------------------------------------------------------------------------------
Tuning: Drop B (BF#BEG#C#)
Tabbed By: Washya

Intro
B|------------------------------------------------------------------------------------------------|
F#|-------------3-------3-------------------------------------3-------3---------------------------|
B|----------------0-------0-------------------------------------0-------0-------------------------|
E|--------0-5-------6-5-----6-5-------0-----0-5/6/8\6-------------5-6-----5-6-------5-------------|
G#|---5/6-----6-------------------5/6---5/6-----------6\5/6---------------------5/6---6\5---------|
C#|-0---------------------------0---------------------------0-----------------0-----------6-5-3-0-|

Part 2 
B|-------------------------------|
F#|------------------------------|
B|-------------------------------|
E|-------------------------------|
G#|---------10h12~----------8h10-|
C#|-/12\\-0-10h12~--/12\\-0-8h10-|

Part 3
B|------------------------------------------------|
F#|-----------------------------------------------|
B|------------------------------------------------|
E|------------------5-----------------------------|
G#|-----5---5h6-5h6---6p5h6-----5h6p5h6-----------|
C#|-5h6---6-----------------5h6---------5h6p5p3p0-|

Verses
B|-------------------------------------------------------------------------|
F#|------------------------------------------------------------------------|
B|------------------5---------------------3-------9\7/10101010-------------|
E|----------5---------------------3----------------------------------------|
G#|-0h33333---33333---33333\11111---11111---55555-7\5/8-8-8-8----5h6p5-643-|
C#|-0h33333---33333---33333\11111---11111---55555--------------0-------643-|

Chorus
B|----------------------------------------------------------------------|
F#|---------------------------------------------------------------------|
B|---------------------------------------------3/6----------------------|
E|----------------------------------------------------------------------|
G#|-5h8p5-5-6-5555555/88-8-10\1111111-11-131-0-1/4-4/55555555-787535875-|
C#|-------5-6-5555555/88-8-10\1111111-11-131-0-----4/55555555-787535875-|

interlude
B|-------------------------------------------------|
F#|------------------------------------------------|
B|-------------------------------------------------|
E|----------/876-------------543-----43------------|
G#|-----543------765-----865-----543----43---------|
C#|-032--------------865-------------------321-210-|x2
PM  *** ***      *** *** ***     ***    **    

Added On December 10th, 2014

SHARE

Comments

blog comments powered by Disqus

ADVERTISEMENT