Washya Tabs

Devine Intervention

1 versions

TAB

            -----------------------------------------------------------------------------
                  Devine Intervention - Washya
-----------------------------------------------------------------------------

Tuning: Drop C (DAFCGC)
Intro
D|---------------------------|
A|---------------------------|
F|-------5-6-5---------------|
C|---2-3---------------------|
G|---------------2-3---------|
C|-0-----------0-----3-0-3-2-|

Verses
D|---------------------------------------------|
A|---------------------------------------------|
F|---------------------------------------------|
C|---------------------------------------------|
G|---------2-3-------------------2-5-----------|
C|-0-6-5-0-----0-2-3-2-0-0-6-5-0-----7-3-5-3-0-|
pm . . . .     . . . . . . . . .     . . . . . 

Chorus
D|---------------------------------------------------|
A|---------------------------------------------------|
F|---------------------------------------------------|
C|---------------------------------------------------|
G|-0-3-6-0-2-5-0-3-6-0-2-555558888866666-0-3-5-0-1-0-|
C|-0-3-6-0-2-5-0-3-6-0-2-555558888866666-0-3-5-0-1-0-|    

Added On December 16th, 2013

SHARE

Comments

blog comments powered by Disqus

ADVERTISEMENT