Washya Tabs

Diseased Life

1 versions

TAB

            -------------------------------------------------------------------------------
                             Diseased Life - Washya
-------------------------------------------------------------------------------
Tabbed by:
E-mail:

Tuning: Drop C (DAFCGC)
Intro
D|----------------------------------------------------------------|
A|----------------------------------------------------------------|
F|----------------------------------------------------------------|
C|----------------------------------------------------------------|
G|-3-2---------3-2---------3-2---6-5---------3-2---6-5---8-7---1--|
C|-3-2-000-000-3-2-000-000-3-2-0-6-5-000-000-3-2-0-6-5-0-8-7-0-1-0|
PM     *** ***     *** ***     *     *** ***     *     *     *   * 

Part 2
D|-----------------------------------------|
A|-----------------------------------------|
F|-----------------------------------------|
C|------------------------------------3----|
G|---------------6666644443333--------1-3--|
C|-2-5-3-6-2-5-3-6666644443333-/8~-7~---3-0|
PM * * * * * * *     

Verses
D|-------------------------------------------------------------------------------------------------------------|
A|-------------------------------------------------------------------------------------------------------------|
F|-------------------------------------------------------------------------------------------------------------|
C|-------------------------------------------------------------------------------------------------------------|
G|-----------------------------------------------------------------------------------------/8888666655556666-8\|
C|-2-2-2-2-2-2-2-2-2-2-2-2-0-0-0-0-3-3-3-3-3-3-3-3-3-3-3-3-1-1-1-1-2-2-2-2-2-2-2-2-2-2-2-2-------------------8\|
PM * * * * * * * * * * * * * * * * * * * * * * * * * * * * * * * * * * * * * * * * * * * *  ****************

Chorus
D|--------------------------------------------------|
A|--------------------------------------------------|
F|-7777/8888\7777/8888\7777/8888---17-16--10/12\10\7|
C|--------------------------------------------------|
G|-5555/6666\5555/6666\5555/6666--/15-14-/8-/10\8-\5|
C|--------------------------------------------------|    

Added On January 11th, 2015

SHARE

Comments

blog comments powered by Disqus

ADVERTISEMENT