Washya Tabs

Equalibrium

1 versions

TAB

            -------------------------------------------------------------------------------
                             Equalibrium - Washya
-------------------------------------------------------------------------------
Tabbed by:
E-mail:

Tuning: Standard (EBGDAE)
intro/Chorus
e|---------------------------------------------------------------------------------------------------------|
B|---------------------------------------------------------------------------------------------------------|
G|---------------------------------------------------------------------------------------------------------|
D|---------------------------------------------------------------------------------------------------------|
A|----------12-13-------------15-13-12-12-12-12-12\10-10-10-10-7--------7--------7--------------77777-3-3-3|
E|-12-13-15-------15-14-12-13----------10-10-10-10\8--8--8--8----10-8-7---10-8-7---10-8-7-8-7-5-55555-1-1-1|
PM                                                               XX X X   XX X X   XX X X X X X

Part 2
e|----------------------------------|
B|----------------------------------|
G|----------------------------------|
D|----------------------------------|
A|-5/6-5/6-5/6-5/6-5/6-5/6-5/6-3/5\\|
E|-3/4-3/4-3/4-3/4-3/4-3/4-3/4-1/3\\|

Verses (Play Fast)
e|-----------------------------------------------------------|
B|-----------------------------------------------------------|
G|-----------------------------------------------------------|
D|-----------------------------------------------------------|
A|-5----4----5----3----8\7-8\7--5----6----8----3----8\7-8\7-2|
E|-3-00-2-00-3-00-1-00-6\5-6\5--3-00-4-00-6-00-1-00-6\5-6\5-0|
PM X XX X XX X XX X XX          X XX X XX X XX X XX


Interlude
e|-----------------------------------------------------------------------------|
B|-----------------------------------------------------------------------------|
G|-----------------------------------------------------------------------------|
D|-----------------------------------------------------------------------------|
A|--------3-4-6-4-5-6-7---8---10-----------------------------------------------|
E|-//\\-0-1-2-4-2-3-4-5-0-6-0-8------------------------------------------------| fade out
PM      X X X X X X X X    

Added On January 11th, 2015

SHARE

Comments

blog comments powered by Disqus

ADVERTISEMENT