Washya Tabs

Eveningstar

1 versions

TAB

            ------------------------------------------------------------------------------
                  EveningStar - Washya 
------------------------------------------------------------------------------
Tuning: Standard (EBGDAE)
Intro
E|-------------------------------------------------|
B|-------------------------------------------------|
G|-------------------------------------------------|
D|-------------------------------------------------|
A|---------------------------------------------5-8-|
E|-0-0-6-0-0-0-3-0-0-6-0-0-0-3-0-0-2-0-0-0-5-0-3-6-|
PM * * * * * * * * * * * * * * * * * * * * * *  

Verses
E|--------------------------|
B|--------------------------|
G|--------------------------|
D|--------------------------|
A|--------------------------|
E|-00h3p0h1p0h1p003p0h1p0h1-|

Chorus
E|-----------------------------|
B|-----------------------------|
G|-----------------------------|
D|---88-7-----333-22----888-77-|
A|-5-66-5-3-5-111-00-44-666-55-|
E|-3------1-3--------22--------|    

Added On December 16th, 2013

SHARE

Comments

blog comments powered by Disqus

ADVERTISEMENT