Washya Tabs

Failure Of The People

1 versions

TAB

            -------------------------------------------------------------------------------
                             Failure Of The People - Washya
-------------------------------------------------------------------------------
Tabbed by:
E-mail:
 
Tuning: Drop B (BF#BEG#C#)
Intro (HEAVY) "Let's Go Motherfucker!!!!!"
B|-----------------------------------------------------|
F#|----------------------------------------------------|
B|-----------------------------------------------------|
E|-----------------------------------------------------|
G#|------6-5-0-1-0-0--6-5-0-1-0-0--6-5-0-1-0-0--1-1-1-1|
C#|-/12\-6-5-0-1-0-0--6-5-0-1-0-0--6-5-0-1-0-0--1-1-1-1|
PM                                              X X X X

Part 2
B|------------------------------------------------------------------------|
F#|-----------------------------------------------------------------------|
B|------------------------------------------------------------------------|
E|------------------------------------------------------------------------|
G#|----------44443333----------44443333----------4444/6b6b6b6b6b6b6b6~~~~~|
C#|-00001111----------00001111----------00001111--------------------------|
   <                tremelo picking                  >


Part 3 (softer)
B|---------------------|
F#|--------------------|
B|---------------------|
E|---------------------|
G#|-------------------6|
C#|-1b-00-1b-00-1b-00/6|

HEAVY!!!
B|------------------------------------------|
F#|-----------------------------------------|
B|------------------------------------------|
E|------------------------------------------|
G#|-1-0-0-1-0-0-1-0-0-6--1-0-0-1-0-0-1-0-0-6|
C#|-1-0-0-1-0-0-1-0-0-6--1-0-0-1-0-0-1-0-0-6|

Verses
B|---------------------------------------------|
F#|--------------------------------------------|
B|---------------------------------------------|
E|---------------------------------------------|
G#|--------------------------------------------|
C#|-0-1-0-3-0-1-0-3-0-6\5-0-1-0-3-0-1-0-4-0-8\7|

Just before chorus
B|--------------------------------------------------------------|
F#|-11-11-11-11-11-12-12-12-12-12-------------------11-11-11-13b|
B|--------------------------------13-13-13-12-12-12-------------|
E|--------------------------------------------------------------|
G#|-------------------------------------------------------------|
C#|-------------------------------------------------------------|
  <                      tremelo picking                   >

Chorus (fast and heavy!!!!)
B|---------------------------------------------|
F#|--------------------------------------------|
B|---------------------------------------------|
E|--1-0-6-5-1-3-6--1-0-6-5-1-3-6--1-0-6-5-1-3-6|
G#|-1-0-6-5-1-3-6--1-0-6-5-1-3-6--1-0-6-5-1-3-6|
C#|-1-0-6-5-1-3-6--1-0-6-5-1-3-6--1-0-6-5-1-3-6|

Guitar Solo
B|--/14-15-17-15-14-------------16-17-16-14--------------------------------------------------|
F#|-----------------15-16-15-14-------------17-15-14----15-14--------------------------------|
B|---------------------------------------------------17-------17-15--------------------------|
E|------------------------------------------------------------------14-15-17-----------------|
G#|--------------------------------------------------------------------------16-14-13--------|
C#|-----------------------------------------------------------------------------------14-15~~|
 
B|------------------------19-17-16------------------------------------------------------------------|
F#|-----16b----16b-----------------19-17-16----17-16------------------------------------------------|
B|--/---16b----16b-16vb~~-------------------19-------19-17-16---------------------------------------|
E|---14-----14------------------------------------------------19-17-------16-19-17-16---------------|
G#|-----------------------------------------------------------------19-17-------------19------------|
C#|--------------------------------------------------------------------------------------17-16-19~~~|




************************************




| /   slide up
| \   slide down
| h   hammer-on
| p   pull-off
| ~   vibrato
| +   harmonic
| x   Mute note
| b   Bend
| pb  Pre-bend
| br  Bend release
| pbr Pre-bend release
| brb Bend release bend

************************************    

Added On January 16th, 2015

SHARE

Comments

blog comments powered by Disqus

ADVERTISEMENT