Washya Tabs

Forest Moon

1 versions

TAB

            -------------------------------------------------------------------------------
			     Forest Moon - Washya
-------------------------------------------------------------------------------
Tabbed by: Josh
Email:

Tuning: Standard (EADgbe) 
Intro/Chorus
e|-------0-------------------2---------------0-0-0-----|
B|---------3---------------2---3-2-----------0-0-0-----|
G|-----------2-----------4---------4---------5-4-2---2-|
D|-----4-------4-------4-------------4-----2-------1---|
A|---2-----------2---2-----------------2-0-------------|
E|-0---------------0-----------------------------------|

Verses
e|--------------------------|
B|--------------------------|
G|---------4-4-5-5----------|
D|-4-4-6-6-4-4-5-5-2-2-2--2-|
A|-4-4-6-6-2-2-3-3-2-2-2--2-|
E|-2-2-4-4---------0-0-0--0-|    

Added On December 16th, 2013

SHARE

Comments

blog comments powered by Disqus

ADVERTISEMENT