Washya Tabs

Frailty

1 versions

TAB

            -------------------------------------------------------------------------------
                             Frailty - Washya
-------------------------------------------------------------------------------
Tabbed by:
E-mail:

Tuning: Drop B (BF#BEG#C#)
Intro
B|---------------------|
F#|--------------------|
B|---------------------|
E|--4-2-0-2-4-3-2-3----|
G#|-4-2-0-2-4-3-2-3----|
C#|-4-2-0-2-4-3-2-3-/6~|x16
PM  * * * * * * * * 

verses
B|-----------------------------|
F#|-<7>-<7>-<7>----------------|
B|--<7>-<7>-<7>-77\------------|
E|--<7>-<7>-<7>-77\------------|
G#|-------------55\-2-3-4-3-2-1|
C#|-----------------2-3-4-3-2-1|
PM                  * * * * * * 

Chorus
B|---------------------------------------------------------|
F#|--------------------------------------------------------|
B|---------------------------------------------------77777\|
E|---------------------------------------------------77777\|
G#|-3-2-3-4-3-4-5-4-5-6-5-6-77777-8-6-5-6-5-3-5-3-1-/55555\|
C#|-3-2-3-4-3-4-5-4-5-6-5-6-77777-8-6-5-6-5-3-5-3-1--------|

************************************

| /   slide up
| \   slide down
| h   hammer-on
| p   pull-off
| ~   vibrato
| +   harmonic
| x   Mute note
| b   Bend
| pb  Pre-bend
| br  Bend release
| pbr Pre-bend release
| brb Bend release bend

************************************    

Added On January 11th, 2015

SHARE

Comments

blog comments powered by Disqus

ADVERTISEMENT