Washya Tabs

Fuck Your Face

1 versions

TAB

            -----------------------------------------------------------------------------
                       Fuck Your Face - Washya
-----------------------------------------------------------------------------
Tuning: Drop C (DAFCGC)
Intro
D|--------------------------------|
A|--------------------------------|
F|--------------------------------|
C|--------------------------------|
G|--------------------------------|
C|-0000-0000-0-00--0000-0000-0-00-|x3
PM **** **** * **  **** **** * ** 

Part 2 (Chorus)
D|-----------------|
A|-----------------|
F|-----------------|
C|---2-5-7---2-5---|
G|-1-0-3-5-1-0-3-5-|
C|-1-------1-----5-|x2

Main Riff
D|------------------------------------------|
A|------------------------------------------|
F|---------------------------------------4*-|
C|-8-5-7---8-5-7---8-5-7-----------3h4h5----|
G|-6-3-5-5-6-3-5-5-6-3-5-3h5-3h4h5----------|
C|-------5-------5-------3h5----------------|

Verses
D|---------------------------------------------------------------------|
A|---------------------------------------------------------------------|
F|---------------------------------------------------------------------|
C|-----------------------------8-----------8p7h8-----------------------|
G|-5-----------5p3h5---------------------------------------3-----------|
C|---0000-0-00-------0000-0-00---0000-0-00-------0000-0-00---0000-0-00-|
PM   **** * **       **** * **   **** * **       **** * **   **** * ** 

D|------------------------|
A|------------------------|
F|------------------------|
C|-----------------10\9-7-|
G|-3p2h3-----------8-\7-5-|
C|-------0000-0-00--------|
PM       **** * ** 

(Chorus)
D|-----------------|
A|-----------------|
F|-----------------|
C|---2-5-7---2-5---|
G|-1-0-3-5-1-0-3-5-|
C|-1-------1-----5-|

Lead solo
D|------------------------------------------------------------------3b-3b-|
A|-3b---------------------3b--/8p7p5-/6p5p3/8p7p5/6p5p3h6p5p3h6p5p3-5b-5b-|
F|-5bb7-------------3h4h5-5b7---------------------------------------------|
C|------------3h4h6-------------------------------------------------------|
G|------3h5h6-------------------------------------------------------------|
C|------------------------------------------------------------------------|
PM      ***** ***** ***** 

D|-3b-7b-/15p14h15----15p14p12----12h14p12----15p14p12----------------13p12-|
A|-5b--------------14----------14----------14----------14-------14p12-------|
F|--------------------------------------------------------15p14-------------|
C|--------------------------------------------------------------------------|
G|--------------------------------------------------------------------------|
C|--------------------------------------------------------------------------|

D|----16p14h16p14h16p14----------15p13p12----------------------15b-17b-|
A|-15-------------------16p14p13----------13-------15----------13b-15b-|
F|-------------------------------------------12h14----14p12h14---------|
C|---------------------------------------------------------------------|
G|---------------------------------------------------------------------|
C|---------------------------------------------------------------------|

D|-19b-/19h20p19p17----17p16p14h17p16p14----14p13p11h14p13-------12-131313b-|
A|-17b--------------19-------------------16----------------11h13----151515b-|
F|--------------------------------------------------------------------------|
C|--------------------------------------------------------------------------|
G|--------------------------------------------------------------------------|
C|--------------------------------------------------------------------------|

Tuning: Drop C (DAFCGC)
Intro
D|--------------------------------|
A|--------------------------------|
F|--------------------------------|
C|--------------------------------|
G|--------------------------------|
C|-0000-0000-0-00--0000-0000-0-00-|x3
PM **** **** * **  **** **** * ** 

Part 2 (Chorus)
D|-----------------|
A|-----------------|
F|-----------------|
C|---2-5-7---2-5---|
G|-1-0-3-5-1-0-3-5-|
C|-1-------1-----5-|x2

Main Riff
D|------------------------------------------|
A|------------------------------------------|
F|---------------------------------------4*-|
C|-8-5-7---8-5-7---8-5-7-----------3h4h5----|
G|-6-3-5-5-6-3-5-5-6-3-5-3h5-3h4h5----------|
C|-------5-------5-------3h5----------------|

Verses
D|---------------------------------------------------------------------|
A|---------------------------------------------------------------------|
F|---------------------------------------------------------------------|
C|-----------------------------8-----------8p7h8-----------------------|
G|-5-----------5p3h5---------------------------------------3-----------|
C|---0000-0-00-------0000-0-00---0000-0-00-------0000-0-00---0000-0-00-|
PM   **** * **       **** * **   **** * **       **** * **   **** * ** 

D|------------------------|
A|------------------------|
F|------------------------|
C|-----------------10\9-7-|
G|-3p2h3-----------8-\7-5-|
C|-------0000-0-00--------|
PM       **** * ** 

(Chorus)
D|-----------------|
A|-----------------|
F|-----------------|
C|---2-5-7---2-5---|
G|-1-0-3-5-1-0-3-5-|
C|-1-------1-----5-|    

Added On December 16th, 2013

SHARE

Comments

blog comments powered by Disqus

ADVERTISEMENT