Washya Tabs

Get Motivated

1 versions

TAB

            -----------------------------------------------------------------------------
                      Get Motivated - Washya
-----------------------------------------------------------------------------
Tuning: Drop C (DAFCGC)
Intro
D|---------------------------------------------|
A|---------------------------------------------|
F|---------------------------------------------|
C|---------------------------------------------|
G|-0-0-2-5-6-0-0-2-5-6-0-0-2-5-6-0-------------|
C|-0-0-2-5-6-0-0-2-5-6-0-0-2-5-6-0-0-1-4-0-3-6-|
PM                                 * * * * * * 

Verses
D|-------------------------------------------------------|
A|-------------------------------------------------------|
F|-------------------------------------------------------|
C|-------------------------------------------------------|
G|-0-00-0-1-3-4-00-0-1-3-4-00-0-1-3-4-00-0-1-3-4-3-5-6\\-|
C|-0-00-0-1-3-4-00-0-1-3-4-00-0-1-3-4-00-0-1-3-4-3-5-6\\-|

Chorus
D|--------------------------------------------------------------------------|
A|--------------------------------------------------------------------------|
F|--------------------------------------------------------------------------|
C|--------------------------------------------------------------------------|
G|-111-1-00-0-11-1/3\6/33-3-33-3-0-1-0-/5-6-33-3-33-00-0-00-0-5/6-0-3-5-0-0-|
C|-111-1-00-0-11-1/3\6/33-3-33-3-0-1-0-/5-6-33-3-33-00-0-00-0-5/6-0-3-5-0-0-|    

Added On December 16th, 2013

SHARE

Comments

blog comments powered by Disqus

ADVERTISEMENT