Washya Tabs

Gifted

1 versions

TAB

            -----------------------------------------------------------------------------
                          Gifted - Washya
-----------------------------------------------------------------------------
Tuning: Standard (EADGBe) 
Intro (main riff)
e|---------------------------------------|
B|-------1---------------------------2---|
G|-3-3-3---2---1---------------0---2-----|
D|-3-3-3-----2---2---3-3-3---2---0-------|
A|-1-1-1-----------2-3-3-3-3-------------|
E|-------------------1-1-1---------------|

Verses
e|----------------------------------------------------------------|
B|---------------------------------------------------------2-4-4--|
G|-3-3-3-5-5-5-----------------------------4-4-4-----4---4--------|
D|-3-3-3-5-5-5-----5-----5-3-3-----3-----3-4-4-4---4---4----------|
A|-1-1-1-3-3-3---5-----5---3-3---3-----3---2-2-2-2----------------|
E|-------------3-----3-----1-1-1-----1----------------------------|

Chorus
e|---------------------------------------------------------------------|
B|-----------------------------------2-4-2-----------------------------|
G|---------------------4-------4---4-------4-----------------2---------|
D|-----3-------3-----4---4---4---4-----------4-----------4-3---3-5-5-5-|
A|---3---3---3---3-2-------2-------------------2-4-4---4-----------3-3-|
E|-1-------1-------------------------------------2-2-2-----------------|    

Added On December 16th, 2013

SHARE

Comments

blog comments powered by Disqus

ADVERTISEMENT