Washya Tabs

Glass Eye

1 versions

TAB

            -----------------------------------------------------------------------------
                    Glass Eye - Washya
-----------------------------------------------------------------------------
Tuning: Drop D (EBGDAD)
Intro
E|----------------------------------------------|
B|----------------------------------------------|
G|----------------------------------------------|
D|-----2---2---2---2/44-4-5-4-2---2-------------|
A|-2/4---4---4---4--------------4---4-444-66-66-|
D|------------------------------------444-66-66-|

Verses
E|-------------------------------------------------------------------|
B|-------------------------------------------------------------------|
G|--------------2---4--------------2---2/4~--------------2-----------|
D|----------2/4---4------------2/4---4---------------2/4---4---------|
A|-----------------------------------------------------------5-4-2-0-|
D|-00000000-----------00000000--------------00000000-----------4-2-0-|
pm ********           ********              ********

Chorus
E|------------------------------------------------|
B|------------------------------------------------|
G|-2-222-------------5-555/7-777------------------|
D|-2-222-------------5-555/7-777------------------|
A|-0-000-4-444-2-222-3-333/5-555-5555-55/888-88-8-|
D|-------4-444-2-222-------------5555-55/888-88-8-|    

Added On December 16th, 2013

SHARE

Comments

blog comments powered by Disqus

ADVERTISEMENT