Washya Tabs

Gone Awry

1 versions

TAB

            -------------------------------------------------------------------------------
                            Gone Awry  - Washya
-------------------------------------------------------------------------------
Tabbed by:
E-mail:

Tuning: Drop B (BF#BEG#C#)

B|--------|
F#|-------|
B|--------|
E|--8-7\\\|
G#|-8-7\\\|
C#|-8-7\\\|

B|----------------------------------------------------------|
F#|---------------------------------------------------------|
B|----------------------------------------------------------|
E|--0-0-0-1--0-0-0-1--0-0-0-1--0-0-0-1--0-0-0-1-------------|
G#|-0-0-0-1--0-0-0-1--0-0-0-1--0-0-0-1--0-0-0-1----6p5---3p2|
C#|-0-0-0-1--0-0-0-1--0-0-0-1--0-0-0-1--0-0-0-1-/5-----2----|x4
PM  * * *    * * *    * * *    * * *    * * * 

B|--------------------------------------------|
F#|-------------------------------------------|
B|--------------------------------------------|
E|--0-0-0-1--0-0-0-1--0-0-0-1--3/4\3-0-1-0-1-0|
G#|-0-0-0-1--0-0-0-1--0-0-0-1--3/4\3-0-1-0-1-0|
C#|-0-0-0-1--0-0-0-1--0-0-0-1--3/4\3-0-1-0-1-0|
PM  * * *    * * *    * * *  

Verses
B|---------------------------------|
F#|--------------------------------|
B|------5\4-------------------8\7--|
E|--3\2-5\4-0-432--65-0-0-0-1-8\7-5|
G#|-3\2-3\2-0-432--65-0-0-0-1-6\5-5|
C#|-3\2-----0-432-/65-0-0-0-1-----5|x5

Chorus
B|----------------------------------------------------------------|
F#|---------------------4---------------5-------------------------|
B|----------------------4---------------5-------------------333-2\|
E|--1-0-3/4\3/5/6-2\1/2-4-2/4/5\4/5/6/7-5-5-4-2-4-3-2-3-2-1-333-2\|
G#|-1-0-3/4\3/5/6-2\1/2---2/4/5\4/5/6/7---5-4-2-4-3-2-3-2-1-111-0\|
C#|-1-0-3/4\3/5/6-2\1/2---2/4/5\4/5/6/7---5-4-2-4-3-2-3-2-1-------|


************************************

| /   slide up
| \   slide down
| h   hammer-on
| p   pull-off
| ~   vibrato
| +   harmonic
| x   Mute note
| b   Bend
| pb  Pre-bend
| br  Bend release
| pbr Pre-bend release
| brb Bend release bend

************************************    

Added On December 19th, 2014

SHARE

Comments

blog comments powered by Disqus

ADVERTISEMENT