Washya Tabs

Goodbye Gone

1 versions

TAB

            -------------------------------------------------------------------------------
                             Goodbye Gone - Washya
-------------------------------------------------------------------------------
Tabbed by:
E-mail:

Tuning: Drop B 9BF#BEG#C#) 
B|-------------------------------------------------------------------------|
F#|-8-8-8-8\7-7-7-7/8-8-8-8\7-7-7-7/10-10-10-10\9-9-9-9/10-10-10-10\9-9-9-9|
B|-------------------------------------------------------------------------|
E|--5-5-5-5\4-4-4-4/5-5-5-5\4-4-4-4/7--7--7--7-\6-6-6-6/7--7--7--7-\6-6-6-6|
G#|------------------------------------------------------------------------|
C#|------------------------------------------------------------------------|

B|-------------------------------------------------|
F#|-13-13-13-13\12-12-12-12/13-13-13-13\12-12-12-12|
B|-------------------------------------------------|
E|--10-10-10-10\9--9--9--9-/10-10-10-10\9--9--9--9-|
G#|------------------------------------------------|
C#|------------------------------------------------|

Part 2 (VERSES)
B|-------------------------------------------------------------------------------------------------|
F#|------------------------------------------------------------------------------------------------|
B|-------------------------------------------------------------------------------------------------|
E|-------------------------------------------------------------------------------------------------|
G#|---------5-5-5-5-5-5-5-5-4-4-4-4-4-4-4-4---------2-2-2-2-2-2-2-2-1-1-1-1-1-1-1-1---------/8-7-4\|
C#|-0-2-3-1---------------------------------5-4-2-4---------------------------------2-1-0-1-/8-7-4\|
PM  X X X X X X X X X X X X X X X X X X X X X X X X X X X X X X X X X X X X X X X X X X X X 

Chorus
B|-------------------------------------------------------------------------------------------|
F#|------------------------------------------------------------------------------------------|
B|-------------------------------------------------------------------------------------------|
E|-----------------------------------------------------------3/6---------6/9---------9\5-----|
G#|-8888-7-7h10p7-88888-777-7------8-7-55555-11111-0-1-0-----1/4-4-------4/7-7-------7\3-1-4\|
C#|-8888-7--------88888-777-7h10p7-8-7-55555-11111-------3-1-----4-4-2-1-----7-7-5-4-----1-4\|
PM                                                                 X X X       X X X 




************************************

| /   slide up
| \   slide down
| h   hammer-on
| p   pull-off
| ~   vibrato
| +   harmonic
| x   Mute note
| b   Bend
| pb  Pre-bend
| br  Bend release
| pbr Pre-bend release
| brb Bend release bend

************************************    

Added On January 20th, 2015

SHARE

Comments

blog comments powered by Disqus

ADVERTISEMENT