Washya Tabs

Grey Matter

1 versions

TAB

            ------------------------------------------------------------------------------
                           Grey Matter - Washya
------------------------------------------------------------------------------
Tuning: Drop C (DAFCGC)
Intro
D|----------------------------------------------------------|
A|----------------------------------------------------------|
F|----------------------------------------------------------|
C|----------------------------------------------------------|
G|-0-222-0-222-0-22-0-222-0-222-0-22-0-222-0-2-0-2/666666-3-|
C|-0-222-0-222-0-22-0-222-0-222-0-22-0-222-0-2-0-2/666666-3-|
PM * *** * *** * ** * *** * *** * ** * *** * * * * 

Verses
D|-------------------------------------------------|
A|-------------------------------------------------|
F|-------------------------------------------------|
C|---------3-6-----------6-10----------------------|
G|---3-6-4-----5h6-3--/7--------6-10-----4444-44-2-|
C|-4--------------------------7------6h7-4444-44-2-|
PM * * * * * * *** *   * * ** * * ** *** 

Chorus
D|----------------------------------------------------------------------|
A|----------------------------------------------------------------------|
F|----------------------------------------------------------------------|
C|-121212121212--------------------------------------------444-44-------|
G|-101010101010-10-10101010h12-9-999999-6-6666h7-4-44-4-44-222-22-2h3-2-|
C|--------------10-10101010h12-9-999999-6-6666h7-4-44-4-44--------2h3-2-|
PM                 ********      ******   ****     *  * *    

Added On December 16th, 2013

SHARE

Comments

blog comments powered by Disqus

ADVERTISEMENT