Washya Tabs

Grow

1 versions

TAB

            -----------------------------------------------------------------------------
                           Grow - Washya
-----------------------------------------------------------------------------
Tuning: Drop C (DAFCGC)
Intro
D|--------------------------------------------------------------------------|
A|--------------------------------------------------------------------------|
F|-----------/5p4-----------/5p4p2--------------------/8p7--------8p7p5-----|
C|-2-xx-2-xx------2-xx-2-xx--------2/5p4-4/5-xx-4/5-xx------4/5-xx------245-|
G|-2-xx-2-xx------2-xx-2-xx--------------4/5-xx-4/5-xx------4/5-xx------245-|
C|-2-xx-2-xx------2-xx-2-xx--------------4/5-xx-4/5-xx------4/5-xx------245-|

Verses
D|-------------------------------------------------------------|
A|-------------------------------------------------------------|
F|-------------------------------------------------------------|
C|--------7-6--------7/8--------8\7--------9--------8------7\\-|
G|--------5-5--------5/6--------6\6--------7--------7------7\\-|
C|-222222-----222222-----222222-----666666---666666---777777---|
PM ******     ******     ******     ******   ******   ***** 

Chorus
D|---------------------------------------------------------|
A|---------------------------------------------------------|
F|---------------------------------------------------------|
C|-5-5/8--------1-1/4--------7h8p7-------------11/33333333/66666666-|
G|-5-5/8--------1-1/4--------7h8p7-------------11/33333333/66666666-|
C|-5-5/8-888888-1-1/4-444444-7h8p7-------------11/33333333/66666666-|
PM       ******       ******  

D|-----------------------------------------------|
A|--------------------------------------------------|
F|--------------------------------------------------------|
C|------------------0h2h3p2/555-0h2h3p2/777-7-8-7-5-7-5-3-|
G|------------------0h2h3p2/555-0h2h3p2/777-7-8-7-5-7-5-3-|
C|------------------0h2h3p2/555-0h2h3p2/777-7-8-7-5-7-5-3-|

Verses
D|-------------------------------------------------------------|
A|-------------------------------------------------------------|
F|-------------------------------------------------------------|
C|--------7-6--------7/8--------8\7--------9--------8------7\\-|
G|--------5-5--------5/6--------6\6--------7--------7------7\\-|
C|-222222-----222222-----222222-----666666---666666---777777---|
PM ******     ******     ******     ******   ******   *****    

Added On December 16th, 2013

SHARE

Comments

blog comments powered by Disqus

ADVERTISEMENT