Washya Tabs

Growing Seed

1 versions

TAB

            -----------------------------------------------------------------------------
                     Growing Seed - Washya
-----------------------------------------------------------------------------
Tuning: Drop D (DADGBE)
Intro
E|--------------------------------------------|
B|--------------------------------------------|
G|--------------------------------------------|
D|--------------------------------------------|
A|--------------------------------------------|
D|-1-0000-1-0000-1-0000-1-0000-1-0-1-0-1-0000-|x3
PM * **** * **** * **** * **** * * * * * ****  

Verses
E|------------------------------------------|
B|------------------------------------------|
G|------------------------------------------|
D|------------------------------------------|
A|-66-5/6-00-5/6-00-5/6-3~-66-5/6-00-5/6-00-|
D|-66-5/6-00-5/6-00-5/6-3~-66-5/6-00-5/6-00-|

Part before chorus
E|-------------------------------|
B|-------------------------------|
G|-------------------------------|
D|-7-6-7-6-5-4-5-4---------------|
A|-5-5-5-5-3-3-3-3-0-1-3-4-0-1-0-|
D|-----------------0-1-3-4-0-1-0-|
PM                 * * * * * * * 

Chorus
E|---------------------------------------------------|
B|---------------------------------------------------|
G|---------------------------------------------------|
D|---------------------------------------------------|
A|-0-3-5-0-1-3-0-5-6-0-3-5-0-1-3-0-6-5-3-0-3-5-0-1-3-|
D|-0-3-5-0-1-3-0-5-6-0-3-5-0-1-3-0-6-5-3-0-3-5-0-1-3-|    

Added On December 16th, 2013

SHARE

Comments

blog comments powered by Disqus

ADVERTISEMENT