Washya Tabs

Hold A Grudge

1 versions

TAB

            ------------------------------------------------------------------------------
                              Hold a Grudge - Washya
------------------------------------------------------------------------------
Tuning: Drop D (DADGBE)
Intro
E|-----------------------------|
B|-----------------------------|
G|-----------------------------|
D|-----------------------------|
A|-0-3-0-4-0-6-0-4-0-1-3-4-3-1-|
D|-0-3-0-4-0-6-0-4-0-1-3-4-3-1-|
PM * * * * * * * * * * * * * *  x3

Verses
E|-----------------------------|
B|-----------------------------|
G|-----------------------------|
D|---5---6---8---6---3-5-6-5-3-|
A|---3---4---6---4---1-3-4-3-1-|
D|-0---0---0---0---0-----------|
PM *   *   *   *   *    

Chorus
E|----------------------------------------------------------------------|
B|----------------------------------------------------------------------|
G|-444444/77777-55555-----------------------3/4------3/4----------------|
D|-222222/55555-55555-55555/777h8-3h5-55555-3/4------3/4----------------|
A|-222222/55555-33333-55555/777h8-3h5-55555-1/2-4-44-1/2-2-22-2-4-0-1-0-|
D|-222222/55555-------55555/777h8-3h5-55555-----4-44-----2-22-2-4-0-1-0-|
PM                                    *****       **       ** * * * * *    

Added On December 16th, 2013

SHARE

Comments

blog comments powered by Disqus

ADVERTISEMENT