Washya Tabs

Hold Your Breath

1 versions

TAB

            -------------------------------------------------------------------------------
			     Hold Your Breath - Washya
-------------------------------------------------------------------------------
Tabbed by:
Email:
Tuning: Drop C
Verses/Intro
D|------------------------------------------------11-9-7---10-9-10-12~---|
A|----------------------------------------------9--------9---------------|
F|-----7-5-3--------6-4-2--------9-7-5----7-9-7--------------------------|
C|---5-------5----4-------4----7-------7---------------------------------|
G|-3------------2------------5-------------------------------------------|
C|-----------------------------------------------------------------------|
pm . .          . .          . .          . .                      

Chorus
D|--------------------------------------------------------------------|
A|--------------------------------------------------------------------|
F|--------------------------------------------------------------------|
C|-3-5-8-7-3-5-3-5-6-5-3-5-8-7-10-10-10-5-5-5-8-3-3-3-0-2-3-0-3p2p0~--|
G|-3-5-8-7-3-5-3-5-6-5-3-5-8-7-10-10-10-5-5-5-8-3-3-3-0-2-3-0---------|
C|-3-5-8-7-3-5-3-5-6-5-3-5-8-7-10-10-10-5-5-5-8-3-3-3-0-2-3-0---------|    

Added On December 16th, 2013

SHARE

Comments

blog comments powered by Disqus

ADVERTISEMENT