Washya Tabs

Hopeful Plunder

1 versions

TAB

            -------------------------------------------------------------------------------
            Hopeful Plunder - Washya
-------------------------------------------------------------------------------
Tuning: Standard (ebgDAE)
Intro
e|-------0~------------|
b|-------2~------------|
g|-------3~---------|
D|-------0~------------|
A|-3-3-2-0~-3-3-2------|
E|-1-1-0-0~-1-1-0------|x3

Verses
e|-----------------------------------------|
b|-----------------------------------------|
g|-----------------------------------------|
D|-----------------------------------------|
A|-----2-222-----2-222-2-22-2222-222-2-222-|
E|-12\-0-000-12\-0-000-0-00-0000-000-0-000-|

Chorus
e|----------------------|
b|----------------------|
g|----------------------|
D|------------3---------|
A|----3---5---1---5---6-|
E|-00-1-0-3-0---0-3-0-4-|
PM ..   .   .   .   .    

Added On December 16th, 2013

SHARE

Comments

blog comments powered by Disqus

ADVERTISEMENT