Washya Tabs

Hypertensive

1 versions

TAB

            -----------------------------------------------------------------------------
                       Hypertensive - Washya
-----------------------------------------------------------------------------
Tuning: Standard (EBGDAE)
intro
E|-------------------------------------------------------------------|
B|-------------------------------------------------------------------|
G|-------------------------------------------------------------------|
D|----------------------8---------8----------------------8---------8-|
A|-121212-12-12----8-10------8-10---121212-12-12----8-10------8-10---|
E|-101010-10-10-10--------10--------101010-10-10-10--------10--------|

Verses
E|----------------------------------------------------------|
B|----------------------------------------------------------|
G|----------------------------------------------------------|
D|----------------------------------------------------------|
A|-121212121212121212121212\1010101010101010101010-88-10-12-|
E|-101010101010101010101010\8-8-8-8-8-8-8-8-8-8-8--66-8--10-|
PM ************************** * * * * * * * * * * 

Chorus
E|-----------------------------------------------|
B|-----------------------------------------------|
G|-9----------9---------------5------------------|
D|-9-9/10/12--9-9-11\22222222-5-5-7-9-7777777777-|
A|-7-9/10/12--7-9-11\22222222-3-5-7-9-7777777777-|
E|---7/8/-10----7-9-\00000000---3-5-7-5555555555-|
PM                   ********         **********    

Added On December 16th, 2013

SHARE

Comments

blog comments powered by Disqus

ADVERTISEMENT