Washya Tabs

In Control

1 versions

TAB

            -------------------------------------------------------------------------------
                             In Control - Washya
-------------------------------------------------------------------------------
Tabbed by:
E-mail:
 
Tuning: Drop B (BF#BEG#C#)
Intro
B|--------------------------------------------------------------------------------------------------------|
F#|-------------------------------------------------------------------------------------------------------|
B|--------------------------------------------------------------------------------------------------------|
E|--------------------------------------------------------------------------------------------------------|
G#|-12\-------------------12--------------------12--------------------12-12h13-13-13-13-13-/15-13-12----13|
C#|-12\-/15-14-0000000-15----15-14-000000000-15----15-14-000000000-15--------------------------------15---|
PM             *******             *********             *********          ** ** ** ** **  

B|----------------|
F#|---------------|
B|----------------|
E|----------------|
G#|---------------|
C#|-15-13-15-13-12|

Verses
B|---------------------------------------------------------------------|
F#|--------------------------------------------------------------------|
B|---------------------------------------------------------------------|
E|---------------------------------------------------------------------|
G#|--------------12-13-12-----------------------------15-14-13---------|
C#|-000000000-15----------13-15-14-12-000000000-12-13----------15-13-12|
PM  *********                         ********* 

Part 2
B|--------------------------------------------------|
F#|-------------------------------------------------|
B|--------------------------------------------------|
E|-----------------3/6\5-------5/8------------------|
G#|-/8-6-5-6-5-8-1-1/4\3-6-1-0-3/6-6-1-0-4h7p4-4-4-5|
C#|--------6-5-8-1-------6-1-0-----6-1-0-------4-4-5|

Chorus
B|-----------------------------------------------------|
F#|----------------------------------------------------|
B|-----------------------------------------------------|
E|-----------77777777-33333333-------------------------|
G#|-55555555-55555555-11111111-33333-1-3-1-0-555-666-88|
C#|-55555555-------------------33333-1-3-1-0-555-666-88|
************************************

| /   slide up
| \   slide down
| h   hammer-on
| p   pull-off
| ~   vibrato
| +   harmonic
| x   Mute note
| b   Bend
| pb  Pre-bend
| br  Bend release
| pbr Pre-bend release
| brb Bend release bend

************************************    

Added On January 14th, 2015

SHARE

Comments

blog comments powered by Disqus

ADVERTISEMENT