Washya Tabs

Into The Abyss

1 versions

TAB

            -----------------------------------------------------------------------------
			     Into The Abyss - Washya
-----------------------------------------------------------------------------
Tabbed by:
Email:

Tuning: Standard (eBGDAE) 
Intro
e|-----------------------------------|
B|-----------------------------------|
G|-----------------------------------|
D|-----3------------3-5~-------------|
A|-------5-3------5------------5-4-3-|
E|-3-5-------5--3--------0-0-0-3-2-1-|
pm                       . . . 

Chorus
e|---------------------------------------------------------|
B|---------------------------------------------------------|
G|----------------------------------9~---------------------|
D|-----------4~------------9h10p9p7------------------------|
A|---4h5p4p2------4h5p4~-7---------------5h6p5p3---2-2-2-2-|
E|-2------------2----------------------3---------5-0-0-0-0-|
pm                                                 . . . . 

Verses
e|-----------------------------------|
B|-----------------------------------|
G|-----------------------------------|
D|-----3------------3-5~-------------|
A|-------5-3------5------------5-4-3-|
E|-3-5-------5--3--------0-0-0-3-2-1-|
pm . . . . . . . . . . . . . . . . .    

Added On December 16th, 2013

SHARE

Comments

blog comments powered by Disqus

ADVERTISEMENT