Washya Tabs

Its A Long Way To The Top If You Wanna Rock And Roll

1 versions

TAB

            -------------------------------------------------------------------------------
  It's A Long Way To The Top (If You Wanna Rock And Roll) - Washya (ACDC)
-------------------------------------------------------------------------------
Tabbed by:
E-mail:

Tuning: Standard (EBGDAE)
Intro/verses (Guitar 1 Malcolm)
e|----------|
B|----------|
G|-2--22--22|
D|-2--22--22|
A|-0--00--00|
E|---x---x--|

Intro/Verses (Guitar 2 Angus Lead)
e|-----------7~| |-7-x-7| (also bagpipe section)
B|-----7-----7~| |-7-x-7|
G|-7h8---7h8---| |------|
D|-------------| |------|
A|-------------| |------|
E|-------------| |------|

Chorus (Angus and Malcolm)
e|-------3-----3|
B|-------3-----3|
G|-2---1-0-2---0|
D|-2-2-2-0-2-2-0|
A|-0-2-2-2-0-2-2|
E|---0---3---0-3|

Bag pipe Section (Angus)
e|----------|
B|-----7~-7\|
G|----------|
D|-7h8------|
A|----------|
E|----------|

Just before solo (Angus) During solo (Malcolm)
e|-----3|                 |-----------|
B|-----3|                 |-----------|
G|-1-2-0|                 |-2---22---2|
D|-2-2-0|                 |-2---22---2|
A|-2-0-2|                 |-0---00---0|
E|-----3|                 |---x----x--|

Guitar Solo (Angus Lead)
e|---------------------------|
B|---------------------------|
G|-14--14-10h12----10----10~~|
D|--------------11----11-----|
A|---------------------------|
E|---------------------------|

e|-----3----------------14h15p14-----------|
B|-----3--/15b-14h15-15----------15p14-----|
G|-2-1-0-------------------------------15\\|
D|-2-2-0-----------------------------------|
A|-0-2-2-----------------------------------|
E|-----3-----------------------------------|


e|-----3---------------------------------------------------15-15\|
B|-----3----------------------15b-13h15b-----13h15-15b-----15----|
G|-2-1-0-/-15b-15p13-15-15p13------------13b-----------13b-------|
D|-2-2-0---------------------------------------------------------|
A|-0-2-2---------------------------------------------------------|
E|-----3---------------------------------------------------------|

Tuning: Standard (EBGDAE)
Intro/verses (Guitar 1 Malcolm)
e|----------|
B|----------|
G|-2--22--22|
D|-2--22--22|
A|-0--00--00|
E|---x---x--|

************************************

| /   slide up
| \   slide down
| h   hammer-on
| p   pull-off
| ~   vibrato
| +   harmonic
| x   Mute note
| b   Bend
| pb  Pre-bend
| br  Bend release
| pbr Pre-bend release
| brb Bend release bend

************************************    

Added On January 14th, 2015

SHARE

Comments

blog comments powered by Disqus

ADVERTISEMENT