Washya Tabs

Izone Gallery

1 versions

TAB

            -----------------------------------------------------------------------------
                     Izone Gallery - Washya
-----------------------------------------------------------------------------
Tuning: D Tuning (D#A#F#C#G#D#)
Intro
D#|----------------------------------------|
A#|----------------------------------------|
F#|----------------------------------------|
C#|----------------------------------------|
G#|-------------3h5-5-55-1h3-3-33-2h3-2-22-|
D#|-//pickslide-----3-33-----1-11-----0-00-|
PM                    XX       XX       XX 

Verses
D#|-----------------------------------------------------------------------|
A#|-----------------------------------------------------------------------|
F#|-----------------------------------------------------------------------|
C#|-5-55-5-555-55-----------------------------2-22-2-222-22-3-33-333-33---|
G#|-3-33-3-333-33-4-44-4-444-44-6-66-6-666-66-0-00-0-000-00-1-11-111-11-3-|
D#|---------------2-22-2-222-22-4-44-4-444-44---------------------------1-|
PM    XX   XX  XX   XX    XX  X   XX    XX  X   XX    XX X    XX  XX  X 

Chorus
D#|---------------------------------------|
A#|---------------------------------------|
F#|-777/6-------------999/8---------------|
C#|-xxx-x-------------xxx-x---------------|
G#|-555/4-2-3-4-2-4-5-777/6-5-6-8-6-5-6-5-|
D#|-------0-1-2-0-2-3-------3-4-6-4-3-4-7-|
PM        X X X X X X       X X X X X X X    

Added On December 16th, 2013

SHARE

Comments

blog comments powered by Disqus

ADVERTISEMENT