Washya Tabs

Killing Lights

1 versions

TAB

            -------------------------------------------------------------------------------
                             Killing Lights - Washya
-------------------------------------------------------------------------------
Tabbed by: josh
E-mail:

Tuning: Standard (EBGDAE)
intro
e|----------------------------------------|
B|----------------------------------------|
G|--------------------------2b-0----------|
D|-------------------------------3p2p0----|
A|-------------------------------------2b-|
E|-1-0--0-1-0--0-1-0--0-1-0---------------|x3

Intro 2
e|-------------------------------------------------------------------|
B|-------------------------------------------------------------------|
G|-----------------------------------------------------2b-0----------|
D|-3-2---------------------3-2---------------------3-2------2h3p2----|
A|-3-2---------------------3-2---------------------3-2------------2b-|
E|-1-0-0-00-0-00-0-00-0-00-1-0-0-00-0-00-0-00-0-00-1-0---------------|

Verses
e|--------------------------------------------|
B|--------------------------------------------|
G|--------------------------7b-5h8p7\5--------|
D|-------------------------------------7-5----|
A|--------------------------------------------|
E|-X-XX-X-XX-X-XX-X-XX-X-XX----------------7b-|

Chorus 
e|-------------------------------------------------------------|
B|-------------------------------------------------------------|
G|-------------------------------------------------------------|
D|------7---9-8------10\9-66---66---44---44--------------------|
A|----9-5-7-7-6-7/9-\8-\7----7----7----6----6-33---33---3/5-55-|
E|-00-7---5-----5/7------------------------------5----5-1/3-33-|
PM **                     ** * ** * ** * ** * ** * ** *    

Added On November 8th, 2014

SHARE

Comments

blog comments powered by Disqus

ADVERTISEMENT