Washya Tabs

Light Of Time

1 versions

TAB

            -------------------------------------------------------------------------------
                            Light Of Time - Washya
-------------------------------------------------------------------------------
Tabbed by:
E-mail:

Tuning: Drop C (DAFCGC)
Intro (guitar 1)
D|-2-----------------------------------------------2---------2---|
A|-2-------------------------------------------------2---------2-|
F|-3-------4---------4-----------3---------3---4---------4-------|
C|-4---4-----4---4-----4---4---4-----4---4---4---4-----4---4-----|
G|-2-2---2-----2---2-----2---2-----2---2-------------------------|
C|-0-------------------------------------------------------------|x3

Intro guitar 2
D|---------------------------------------------------|
A|---------------------------------------------------|
F|-------10-------10-------7-------7-------4-------4-|
C|-------10-------10-------7-------7-------4-------4-|
G|-------8--------8--------5-------5-------2-------2-|
C|-8888888--8888888--5555555-5555555-2222222-2222222-|x3
PM XXXXXX   XXXXXX   XXXXXX  XXXXXX  XXXXXX  XXXXXX 

Verses (Guitar 1)
D|-------------------------------------------------------------------------|
A|-------------------------------------------------------------------------|
F|---10---------10---------10--------8--------8--------8-------------------|
C|------10---------10---------10-------8--------8--------8-----------------|
G|-8-------8--8-------8--8-------8\6-----6--6-----6--6-----6\4-2-1-3-4-3-1-|
C|-----------------------------------------------------------------3-4-3-1-|
PM X       X  X       X  X       X X     X  X     X  X     X X X X 

Verses (Guitar 2)
D|----------------------------------------------------------------------------------------------------|
A|----------------------------------------------------------------------------------------------------|
F|----------------------------------------------------------------------------------------------------|
C|---------------------------------------------------------------------------------------------------0|
G|------3---6---8---6---5------5--------------------------------5---6---5---3----------2-------------0|
C|-0-00---0---0---0---0---0-/8---8-7-5-3-5-3-000-1b-000-1b-0-00---0---0---0---0-5p3-/5---5-4-2-4-2-4-0|
PM X XX   X   X   X   X   X                  XXX    XXX    X XX   X   X   X   X             

Chorus (Both Guitars)
D|---------------------------------------------------------------------------------------------|
A|---------------------------------------------------------------------------------------------|
F|---------------------------------------------------------------------------------------------|
C|-0--0--0--0-----5-------------0--0--0--0-5-3-5-8-7-8-10-5-7-0--0--0--0----------------3-2-1-0|
G|-0--0--0--0--/8---8-7-5-3-5-3-0--0--0--0-5-3-5-8-7-8-10-5-7-0--0--0--0----5-----------3-2-1-0|
C|-0--0--0--0-------------------0--0--0--0-5-3-5-8-7-8-10-5-7-0--0--0--0-/8---8-7-5-3-5-3-2-1-0|

Verses (Guitar 1)
D|-------------------------------------------------------------------------|
A|-------------------------------------------------------------------------|
F|---10---------10---------10--------8--------8--------8-------------------|
C|------10---------10---------10-------8--------8--------8-----------------|
G|-8-------8--8-------8--8-------8\6-----6--6-----6--6-----6\4-2-1-3-4-3-1-|
C|-----------------------------------------------------------------3-4-3-1-|
PM X       X  X       X  X       X X     X  X     X  X     X X X X 

Verses (Guitar 2)
D|----------------------------------------------------------------------------------------------------|
A|----------------------------------------------------------------------------------------------------|
F|----------------------------------------------------------------------------------------------------|
C|---------------------------------------------------------------------------------------------------0|
G|------3---6---8---6---5------5--------------------------------5---6---5---3----------2-------------0|
C|-0-00---0---0---0---0---0-/8---8-7-5-3-5-3-000-1b-000-1b-0-00---0---0---0---0-5p3-/5---5-4-2-4-2-4-0|
PM X XX   X   X   X   X   X                  XXX    XXX    X XX   X   X   X   X             

************************************

| /   slide up
| \   slide down
| h   hammer-on
| p   pull-off
| ~   vibrato
| +   harmonic
| x   Mute note
| b   Bend
| pb  Pre-bend
| br  Bend release
| pbr Pre-bend release
| brb Bend release bend

************************************    

Added On January 24th, 2015

SHARE

Comments

blog comments powered by Disqus

ADVERTISEMENT