Washya Tabs

Links 2 3 4

1 versions

TAB

            Artist: Rammstein (washya)
Song: Links 2 3 4
Tuning: Drop D 
Intro/Chorus   "LINKS!!!"
E|------------------------|   |-----------|
B|------------------------|   |-----------|
G|----4----4----4---------|   |-----------|
D|----4----4----4---------|   |-----------|
A|-00-2-00-2-00-2-3-5-5/6-|   |-5/666-6\\-|
D|-00---00---00---3-5-5/6-|x3 |-5/666-6\\-|
PM **   **   **  

Verses
E|--------------------------|
B|--------------------------|
G|--------------------------|
D|----4----4----4-----------|
A|----2----2----2---3/5h6\\-|
D|-00---00---00---0-3/5h6\\-|
PM ** * ** * ** * * * ***    

Added On October 10th, 2014

SHARE

Comments

blog comments powered by Disqus

ADVERTISEMENT