Washya Tabs

Live Life In The Fast Lane

1 versions

TAB

            -----------------------------------------------------------------------------
                   Live Life In The Fast Lane - Washya
-----------------------------------------------------------------------------
Tuning: Standard (ebgDAE)

Intro
e|-5---3---8-|
b|---5---5---|
g|-----------|
D|-----------|
A|-----------|
E|-----------| (play fast)

Verses
e|-7---5---10-|
b|---7---7----|
g|------------|
D|------------|
A|------------|
E|------------| (play fast)

Chorus
e|------------------------------------------------------------|
b|------------------------------------------------------------|
g|------------------------------------------------------------|
D|------------------------------------------------------------|
A|--------7h8h10-10-------5h6h8-8-------------------------6-8-|
E|-7h8h10--------8--5h6h8-------6-3h4h6-3h4h6-1h3h4-1h3h4-4-6-|
PM ...... ......    ..... .....   ..... ..... ..... .....    

Added On December 16th, 2013

SHARE

Comments

blog comments powered by Disqus

ADVERTISEMENT