Washya Tabs

Machima

1 versions

TAB

            -----------------------------------------------------------------------------
                         Machima - Washya
-----------------------------------------------------------------------------
Tuning: Standard (ebgDAE)
Intro
e|----------------------------------------|
b|----------------------------------------|
g|----------------------------------------|
D|----------------------------------------|
A|----------------------------2p1---2p1---|
E|-0h111111111111111111111111-----2-----1-|
pm ..........................

Verse
e|---------------------------------------------------------|
b|---------------------------------------------------------|
g|---------------------------------------------------------|
D|-----3------------------1--------0-----------3-----------|
A|---1---3---1-3-----1-2---2-3---1---2-----2-1---2-1-5-3-2-|
E|-2-------2-----1-3-----------3-------1-3-----------3-1-0-|

Chorus
e|--------------------------------------------------|
b|--------------------------------------------------|
g|--------------------------------------------------|
D|-2-------2-----------3-------101010\9\7\5\4-------|
A|-0-4-3-2-0-4-3-2-3/5-1-4-3-2-8-8-8-\7\5\3\2-4-3-2-|
E|---2-1-0---2-1-0-1/3---2-1-0----------------2-1-0-|    

Added On December 16th, 2013

SHARE

Comments

blog comments powered by Disqus

ADVERTISEMENT