Washya Tabs

My Dirty Fingers

1 versions

TAB

            -----------------------------------------------------------------------------
                     My Dirty Fingers - Washya
-----------------------------------------------------------------------------
Drop C (DAFCGC)
Intro
D|-------------------------------------------------------|
A|-------------------------------------------------------|
F|-------------------------------------------------------|
C|-0-2-2-0-2-2-0-2-2-0-2-2-1-2-2-0-2-2-0-2-2-0-2-2-1-2-2-|
G|-0-2-2-0-2-2-0-2-2-0-2-2-1-2-2-0-2-2-0-2-2-0-2-2-1-2-2-|
C|-0-2-2-0-2-2-0-2-2-0-2-2-1-2-2-0-2-2-0-2-2-0-2-2-1-2-2-|

Verses
D|-----------------------------------------------|
A|-----------------------------------------------|
F|---2-2---2-2---2-2-----------2-2---2-2---2-2---|
C|---2-2---2-2---2-2-----------2-2---2-2---2-2---|
G|-3-----3-----3-----3-1-1-3-3-----3-----3-----3-|
C|-3-----3-----3-----3-1-1-3-3-----3-----3-----3-|
pm .     .     .     . . . . .     .     .     .  

Chorus
D|---------------------------------------------------------------|
A|---------------------------------------------------------------|
F|---------------------------------------------------------------|
C|--------------------------------------------------33-2-33-2-33-|
G|-2-33-3-55-3-55-3-55-3-22-33-55-3-55-3-55-3-11-33-11-0-11-0-11-|
C|-2-33-3-55-3-55-3-55-3-22-33-55-3-55-3-55-3-11-33--------------|
pm    

Added On December 16th, 2013

SHARE

Comments

blog comments powered by Disqus

ADVERTISEMENT