Washya Tabs

Negative Forms

1 versions

TAB

            -------------------------------------------
Artist: Washya
Tuning: Drop B 
Song: Negative Forms
-------------------------------------------
Intro
B|----------------------------|
F#|---------------------------|
B|----------------------------|
E|----------------------------|
G#|---------------------------|
C#|-1-0-1--1-0-1--1-0-1--1111-|x2

Intro 2
B|----------------------------|
F#|---------------------------|
B|----------------------------|
E|----------------------------|
G#|-1-0-1--1-0-1--1-0-1--1111-|
C#|-1-0-1--1-0-1--1-0-1--1111-|

Verses
B|----------------------|------------------------------------------------------------|
F#|----------------------------------------------------------------------------------|
B|-----------------------------------------------------------------------------------|
E|-----------------------------------------------------------------------------------|
G#|-1----4----1----4----1-3-4-3-0-1----4--------------1----------------1-3-4-3-0-1-0-|
C#|-1-00-4-00-1-00-4-00-1-3-4-3-0-1-00---00-1-00-4-00---00-4-1-00-1-00-1-3-4-3-0-1-0-|
      XX   XX   XX   XX X X X X     XX   XX        XX                  X X X X  

Chorus
B|-------------------------------------------------------------------------------|
F#|------------------------------------------------------------------------------|
B|--------------12-12-12-12--12\10-10-10------8p7h8--5555\4444\3333--------------|
E|-------------------------------------------------------------------------------|
G#|-13-12-13-00-10-10-10-10--10\8--8--8--8888-------/3333\2222\1111-11-1-0-1-0-1-|
C#|-13-12-13-00--------------------------8888-----------------------11-1-0-1-0-1-|
                                                                    XX X X X X 

Verses
B|----------------------|------------------------------------------------------------|
F#|----------------------------------------------------------------------------------|
B|-----------------------------------------------------------------------------------|
E|-----------------------------------------------------------------------------------|
G#|-1----4----1----4----1-3-4-3-0-1----4--------------1----------------1-3-4-3-0-1-0-|
C#|-1-00-4-00-1-00-4-00-1-3-4-3-0-1-00---00-1-00-4-00---00-4-1-00-1-00-1-3-4-3-0-1-0-|
      XX   XX   XX   XX X X X X     XX   XX        XX                  X X X X  

Chorus
B|-------------------------------------------------------------------------------|
F#|------------------------------------------------------------------------------|
B|--------------12-12-12-12--12\10-10-10------8p7h8--5555\4444\3333--------------|
E|-------------------------------------------------------------------------------|
G#|-13-12-13-00-10-10-10-10--10\8--8--8--8888-------/3333\2222\1111-11-1-0-1-0-1-|
C#|-13-12-13-00--------------------------8888-----------------------11-1-0-1-0-1-|
                                                                    XX X X X X 




Legend 
X = Palm Mute    

Added On October 10th, 2014

SHARE

Comments

blog comments powered by Disqus

ADVERTISEMENT