Washya Tabs

Night Terrors

1 versions

TAB

            -----------------------------------------------------------------------------
                            Night Terrors - Washya
-----------------------------------------------------------------------------
Tuning: Standard (EBGDAE)
Intro
E|---------------------------------------------|
B|---------------------------------------------|
G|---------------------------------------------|
D|-------3-3---------3-3-----------------------|
A|-------1-1-3-------1-1-3-------8-7-5-7-5-4-2-|
E|-1-3-1-----1-1-3-1-----1-1-3-1-6-5-3-5-3-2-0-|
PM * * *       * * *       * * * * * * * * * 

Verses                             D
E|---------------------------2-------2---2-----------------------|
B|-------------------------3---3---3---3---3---------------------|
G|-----9-----7-----5-----2-------2-----------2-----9-----7-----5-|
D|-----9-----7-----5---0---------------------------9-----7-----5-|
A|-----7-----5-----3-------------------------------7-----5-----3-|
E|-7h8---5h6---3h4---0-------------------------7h8---5h6---3h4---|
PM ***   ***   ***                             ***   ***   *** 

                  C
E|------------------------------------------------|
B|-----1--------1---------1p0---------------------|
G|-------0--------0-----------2-----9-----7-----5-|
D|---2------2---------2-------------9-----7-----5-|
A|-3----------3-----3---3-----------7-----5-----3-|
E|------------------------------7h8---5h6---3h4---|
PM                              ***   ***   *** 

Part Before Chorus
E|-----------------------------------------------|
B|-----------------------------------------------|
G|-----------------------------------------------|
D|---------5-4-3-----------7-6-5-----------------|
A|-8-7-5-2-3-2-1-2-8-7-5-2-5-4-3-2-8-7-6-5-4-3-2-|
E|-6-5-3-0-------0-6-5-3-0-------0-6-5-4-3-2-1-0-|
PM * * * * * * * * * * * * * * * * * * * * * *  

Chorus
E|--------------------------------------------------------------|
B|--------------------------------------------------------------|
G|--------------------------------------------------------------|
D|-9-8-7h8-----7-6/8-5p4------9-8-/4h5p4-7-6-6p5------7-6/777\\-|
A|-7-7-----8p7-5-5-6-----5----7-7--------5-5-----6----5-5/555\\-|
E|-------------------------7~----------------------8~-----------|

Solo
E|------------------------------------|
B|-5b-3---3b5p2----------4bp3---------|
G|------5-------3-5-3-5b------5-3-5b~-|  Part 1 
D|------------------------------------|
A|------------------------------------|
E|------------------------------------|

E|----------------------------------------------------11h13----11h13-15~-|
B|-------------------------------------11h13----11h13-------13-----------|
G|---------------------9h11----9h11/12-------12--------------------------|
D|-----9h11----9h11-10------10-------------------------------------------|
A|-/10------10-----------------------------------------------------------|
E|-----------------------------------------------------------------------|
Part 2

E|-13h15p13----13h15p13----13p12-------13h15p13h15----13h15----13h15-----|
B|----------15----------15-------13h15-------------15-------15-------17~-|
G|-----------------------------------------------------------------------|
D|-----------------------------------------------------------------------|
A|-----------------------------------------------------------------------|
E|-----------------------------------------------------------------------|
Part3

E|-/12h15p12----12h15p12----12h15p12----12/14h17p14----14h17p14----|
B|-----------14----------14----------14-------------16----------16-|
G|-----------------------------------------------------------------|
D|-----------------------------------------------------------------|
A|-----------------------------------------------------------------|
E|-----------------------------------------------------------------|

E|-14h17p14-------------------------------------------------------------|
B|----------16-14h17p14----14h17p14----13h16p13----13h16p13----13h16p13-|
G|----------------------16----------15----------15----------15----------|
D|----------------------------------------------------------------------|
A|----------------------------------------------------------------------|
E|----------------------------------------------------------------------|
Part 4

E|--------------------------------------------------------------|
B|----13h16p13--------------------------------------------------|
G|-15----------15----14h17p14----14h17p14----14h17p14-----------|
D|----------------16----------16----------16----------16p15p13~-|
A|--------------------------------------------------------------|
E|--------------------------------------------------------------|
Part 5 

E|-/12----------------------------15p13p12-------------------------17\\-|
B|-----15p14p12----15p12----15p12----------14h15p13p12----16p14p12-17\\-|
G|--------------14-------14----------------------------14---------------|
D|----------------------------------------------------------------------|
A|----------------------------------------------------------------------|
E|----------------------------------------------------------------------|
Part 6 (final)

Tuning: Standard (EBGDAE)
Intro
E|---------------------------------------------|
B|---------------------------------------------|
G|---------------------------------------------|
D|-------3-3---------3-3-----------------------|
A|-------1-1-3-------1-1-3-------8-7-5-7-5-4-2-|
E|-1-3-1-----1-1-3-1-----1-1-3-1-6-5-3-5-3-2-0-|
PM * * *       * * *       * * * * * * * * * 

Verses                             D
E|---------------------------2-------2---2-----------------------|
B|-------------------------3---3---3---3---3---------------------|
G|-----9-----7-----5-----2-------2-----------2-----9-----7-----5-|
D|-----9-----7-----5---0---------------------------9-----7-----5-|
A|-----7-----5-----3-------------------------------7-----5-----3-|
E|-7h8---5h6---3h4---0-------------------------7h8---5h6---3h4---|
PM ***   ***   ***                             ***   ***   *** 

                  C
E|------------------------------------------------|
B|-----1--------1---------1p0---------------------|
G|-------0--------0-----------2-----9-----7-----5-|
D|---2------2---------2-------------9-----7-----5-|
A|-3----------3-----3---3-----------7-----5-----3-|
E|------------------------------7h8---5h6---3h4---|
PM                              ***   ***   *** 

Part Before Chorus
E|-----------------------------------------------|
B|-----------------------------------------------|
G|-----------------------------------------------|
D|---------5-4-3-----------7-6-5-----------------|
A|-8-7-5-2-3-2-1-2-8-7-5-2-5-4-3-2-8-7-6-5-4-3-2-|
E|-6-5-3-0-------0-6-5-3-0-------0-6-5-4-3-2-1-0-|
PM * * * * * * * * * * * * * * * * * * * * * *  

Chorus
E|--------------------------------------------------------------|
B|--------------------------------------------------------------|
G|--------------------------------------------------------------|
D|-9-8-7h8-----7-6/8-5p4------9-8-/4h5p4-7-6-6p5------7-6/777\\-|
A|-7-7-----8p7-5-5-6-----5----7-7--------5-5-----6----5-5/555\\-|
E|-------------------------7~----------------------8~-----------|    

Added On December 16th, 2013

SHARE

Comments

blog comments powered by Disqus

ADVERTISEMENT