Washya Tabs

Oil Spill

1 versions

TAB

            -------------------------------------------------------------------------------
                            Oil Spill - Washya
-------------------------------------------------------------------------------

Tuning: Standard (ebgDAE)
Intro
e|-----------------------------------------|
b|--------7-9---------------------------6~-|
G|----8-7-----8-7---------------------3----|
D|----------------6-5-------------3-5------|
A|-5------------------3-------3-5----------|
E|----------------------2-1-0--------------|

Verses
e|-----------------------------------------------|
b|-----------------------------------------------|
G|-----------6~-7-6-------10-8-7-----------------|
D|---------3--------4------------9-7-------------|
A|-----3-5------------2-----------------7h9p7h9~-|
E|-3-5------------------3------------9~----------|

Chorus
e|----------------------------------------------------------------------|
b|----------------------------------------------------------------------|
G|----------------------------------------------------------------------|
D|-----------88-8-88-8---------------------------------------99999999b~-|
A|-55-5-55-5-66-6-66-6-33-3-33-55-5-55-5-22-2-22-2-22-2-22--------------|
E|-33-3-33-3-----------11-1-11-33-3-33-3-00-0-00-0-00-0-00-0------------|    

Added On December 16th, 2013

SHARE

Comments

blog comments powered by Disqus

ADVERTISEMENT