Washya Tabs

Palace Of Gold

1 versions

TAB

            -------------------------------------------------------------------------------
                   Palace Of Gold - Washya
-------------------------------------------------------------------------------
Tuning: Standard (EBGDAE)
Intro
E|---------------------------------------------------------------0-|
B|---------------------------------------------------------------3-|
G|-------4--------------------8--------------------2-------------0-|
D|---4-----4-------4------8-----8-------8------2-----2-------2---2-|
A|-2---2-------4-----4--6---6-------8-----8--0---0-------2-----2-2-|
E|-----------2---2----------------6---6----------------0---0-----0-|

Part 2
E|-------------------------------------------------------------------|
B|-------------------------------------------------------------------|
G|-------------------------------------------------------------------|
D|-------------------------------------------------------------------|
A|-7777-7777--7777-7777-4-5-7777-7777--7777-7777-7/8-5555-5555-5/7-3-|
E|-5555-5555--5555-5555-2-3-5555-5555--5555-5555-5/6-3333-3333-3/5-1-|

Verses
E|----------------------------------------------------------------7-|
B|----------------------------------------------------------------7-|
G|------------------------------------------------------------9---8-|
D|---4---6------------8---10------------------------------9-----9-9-|
A|-2---4-----4---6--6---8------8---10-----------------9-7---7-----9-|
E|---------2---4-------------6---8----8h10p8h11-7h9p7-------------7-|
PM                                    *******   *** 

Chorus
E|-------------------------------------------------------------------|
B|-------------------------------------------------------------------|
G|-------------------------------------------------------------------|
D|----------------------------------5555-555-5-5-55------------------|
A|-7777-999-6666-666-6-6-3333-333-3-3333-333-3-3-33-5555-555-5-55-22-|
E|-5555-777-4444-444-4-4-1111-111-1-----------------3333-333-3-33-00-|    

Added On December 16th, 2013

SHARE

Comments

blog comments powered by Disqus

ADVERTISEMENT