Washya Tabs

People Are The Enemy

1 versions

TAB

            -------------------------------------------------------------------------------
                            People Are The Enemy - Washya
-------------------------------------------------------------------------------
Tabbed by:
E-mail:

Tuning: Drop  (AEADF#B)
Intro
B|-------------------------------------------------|
F#|------------------------------------------------|
D|-------------------------------------------------|
A|-----------------------------------------1-------|
E|----3p2p0---------3p2p0------------3-2-----3-2-1-|
A|-1b-------1h3--1b-------3-2-1--0h1-----3---3-2-1-|x2

Part 2
B|----------------------------------------------------------------------|
F#|---------------------------------------------------------------------|
D|----------------------------------------------------------------------|
A|----------------------------------------------------------------------|
E|-8888777733335555-8888777733335555-8888777733335555--5-6-0-5--2-3-0-2\|
A|----------------------------------------------------/5-6-0-5--2-3-0-2\|
PM XXXXXXXXXXXXXXXX XXXXXXXXXXXXXXXX XXXXXXXXXXXXXXXX

Main Riff/Verses (distortion)
B|------------------------------------------------------------------------|
F#|-----------------------------------------------------------------------|
D|------------------------------------------------------------------------|
A|------------------------------------------------------------------------|
E|--/12\-5-6-0-5--0-2-3-0-2--5-6-0-5--0-2-3-0-2--5-6-0-5--0-2-3-5-6-5-3-2-|
A|--/12\-5-6-0-5--0-2-3-0-2--5-6-0-5--0-2-3-0-2--5-6-0-5--0-2-3-5-6-5-3-2-|

Chorus
B|----------------------------------------------------------------------------------------------|
F#|---------------------------------------------------------------------------------------------|
D|----------------------------------------------------------------------------------------------|
A|----------------------------------5555/8888----------------------------------4444/7777--------|
E|-555555-666666-555555-2222-333333-3333/6666-666666-555555-666666-3333-222222-2222/5555-5-5555-|
A|-555555-666666-555555-2222-333333-----------666666-555555-666666-3333-222222-----------5-5555-|
PM                                                                                         XXXX



************************************

| /   slide up
| \   slide down
| h   hammer-on
| p   pull-off
| ~   vibrato
| +   harmonic
| x   Mute note
| b   Bend
| pb  Pre-bend
| br  Bend release
| pbr Pre-bend release
| brb Bend release bend

************************************    

Added On January 24th, 2015

SHARE

Comments

blog comments powered by Disqus

ADVERTISEMENT