Washya Tabs

Power Struggle

1 versions

TAB

            -----------------------------------------------------------------------------
			     Power Struggle - Washya
-----------------------------------------------------------------------------
Tabbed by:
Email:

Tuning: Drop D (DADGBE) 
Intro (let Chords ring out)
e|---------------|
B|---------------|
G|---------------|
D|-0-2-5---0-2-5-|
A|-0-2-5---0-2-5-|
D|-0-2-5---0-2-5-|


Verses pt1
e|--------------------------------------------------------|
B|--------------------------------------------------------|
G|--------------------------------------------------------|
D|--------------------------------------------------------|
A|--------------------------------------------------------|
D|-0-0000-0-0-0--0-0000-0-0-0--0-0000-0-0-0--0-0000-0-0-0-|
pm . .... . . .  . .... . . .  . .... . . .  . .... . . . 


Verses pt2 (lots of bends required and hold note)
e|-------------------------------------------------------------------------|
B|-2b----9b-8b----10b------------------------------------------------------|
G|--------------9b--------9b-----------------------------10b-9b------------|
D|-----------7b-------8b-----------8b-5b----------9b-7b--------------------|
A|---------------------------7b-5b-------------5b---------------7b---------|
D|---------------------------------------3b-1b---------------------5b-1b-0-|


Chorus (let chords ring out)
e|------------------------------------------------------|
B|------------------------------------------------------|
G|------------------------------------------------------|
D|------------------------------------------------------|
A|-0-3-1-8-5-0-2h3/7-4-------2-4-5--------0-3h4p3-1-1-0-|
D|-0-3-1-8-5-0-2h3/7-4444444-2-4-55555555-0-3h4p3-1-1-0-|
pm                    ......      .......    

Added On December 16th, 2013

SHARE

Comments

blog comments powered by Disqus

ADVERTISEMENT