Washya Tabs

Pshycological Perception

1 versions

TAB

            -------------------------------------------------------------------------------
                      Phsycological Perception - Washya
-------------------------------------------------------------------------------

Tuning: Drop b (BF#EBG#C#)
Intro
B|----------------------------------------------------------|
F#|---------------------------------------------------------|
E|----------------------------------------------------------|
B|----------------------------------------------------------|
G#|-222222320-222222320-222222320-222222320-222222320-32010-|
C#|-222222320-222222320-222222320-222222320-222222320-32010-|

Verses
B|-------------------------------------------|
F#|------------------------------------------|
E|-----------15~-----------18~-----------21b-|
B|----7b-10b-------10b-13b-------13b-16b-----|
G#|------------------------------------------|
C#|-0------------0-------------0-------------|
pm  .            .             . 

Chorus
B|---------------------------------------------------------|
F#|--------------------------------------------------------|
E|---------------------------------------------------------|
B|---------------------------------------------------------|
G#|-0-2-3-2-0-5-2-3-2-0-2-3-2-0-2-5-0-2-333-5-3-88888-10-7-|
C#|-0-2-3-2-0-5-2-3-2-0-2-3-2-0-2-5-0-2-333-5-3-88888-10-7-|    

Added On December 16th, 2013

SHARE

Comments

blog comments powered by Disqus

ADVERTISEMENT