Washya Tabs

Pulse Of The Maggots

1 versions

TAB

            -------------------------------------------------------------------------------
                             Pulse Of The Maggots - Washya (SLIPKNOT)
-------------------------------------------------------------------------------
Tabbed by:
E-mail:

Tuning: Drop B (BF#BEG#C#)
Intro
B|-----------------------|   |-------------------------------------|
F#|----------------------|   |-------------------------------------|
B|-----------------------|   |-------------------------------------|
E|-----------------------|   |-------------------------------------|
G#|-0-0----------------00|   |-0-0--------------13-12-13-12-13-12\\|
C#|-0-0-0h1111-1-1/12~-00|x3 |-0-0-0h1111-1/12~--------------------|
PM  X X X              XX      X X             

B|-----------------------|
F#|----------------------|
B|-----------------------|
E|--2-3-4-5--------------|
G#|-0-1-2-3-0-1-3-4-3-1-0|
C#|---------0-1-3-4-3-1-0|
PM  X X X X X X X X X X X 

Verses
B|------------------------------------------------------|
F#|-----------------------------------------------------|
B|------------------------------------------------------|
E|------------------------------------------------------|
G#|-00----------------00----------------00--------------|
C#|-00-0-1-3-4-3-1-0--00-0h1111-1-1/12~-00-0-1-3-4-3-1-0|x4
PM  XX                XX                XX 

Chorus "we are the new diabolic........."
B|-------------|
F#|------------|
B|-------------|
E|-------------|
G#|-6-5---3-1-0|
C#|-6-5-6-3-1-0|x 5

Ending B
F#|-------------------------------|
B|--------------------------------|
E|--------------------------------|
G#|-------------------------------|
C#|-000-1b-000-1b-000-1-1-1-000-1b| x 3



************************************

| /   slide up
| \   slide down
| h   hammer-on
| p   pull-off
| ~   vibrato
| +   harmonic
| x   Mute note
| b   Bend
| pb  Pre-bend
| br  Bend release
| pbr Pre-bend release
| brb Bend release bend

************************************    

Added On January 5th, 2015

SHARE

Comments

blog comments powered by Disqus

ADVERTISEMENT