Washya Tabs

Rocktown

1 versions

TAB

            -----------------------------------------------------------------------------
                          Rocktown - Washya
-----------------------------------------------------------------------------
Tuning: Standard (EBGDAE)
Intro
E|-------------------------------------------------|
B|-------------------------------------------------|
G|-1-----1-----1-----1-----0-----0-----0-----0-----|
D|---2-----2-----2-----2-----2-----2-----2-----2---|
A|-----2-----2-----2-----2-----2-----2-----2-----2-|
E|-------------------------------------------------|x3

Verses
E|---------------------------------------------------------------------|
B|---------------------------------------------------------------------|
G|-1-1---------1p0-1-1---------1p0-0-0-------------0-0-------------0-0-|
D|-2-2-2p0---------2-2-2p0---------2-2-0h2p0-------2-2-0h2p0-------2-2-|
A|-2-2-----2p0-----2-2-----2p0-----2-2-------2p0h2-2-2-------2p0h2-2-2-|
E|---------------------------------------------------------------------|

E|--------|
B|--------|
G|-444-\\-|
D|-444-\\-|
A|-222-\\-|
E|--------|

Chorus
E|-----------------------------|
B|---------------111111--------|
G|-111111-000000-000000-444444-|
D|-222222-222222-222222-444444-|
A|-222222-222222-333333-222222-|
E|-----------------------------|    

Added On December 16th, 2013

SHARE

Comments

blog comments powered by Disqus

ADVERTISEMENT