Washya Tabs

Rules Of Justice

1 versions

TAB

            -------------------------------------------------------------------------------
                             SONG NAME - Band Name
-------------------------------------------------------------------------------
Tabbed by:
E-mail:

Tuning: Drop B (BF#BEG#C#)
Intro
B|--------------------------------------------------------------------------------------------------|
F#|---------------8---------------8---------------5---------------5---------------2---------------2-|
B|--------9---------------9---------------6---------------6---------------3---------------3---------|
E|----9-------9-------9-------9-------6-------6-------6-------6-------3-------3-------3-------3-----|
G#|-7---7---7---7---7---7---7---7---4---4---4---4---4---4---4---4---1---1---1---1---1---1---1---1---|
C#|-------------------------------------------------------------------------------------------------|
PM  X   X   X   X   X   X   X   X   X   X   X   X   X   X   X   X   X   X   X   X   X   X   X   X 

Part 2
B|-------------------------------------------------------------|
F#|------------------------------------------------------------|
B|------------------------------1---------------5-7\6-3/4------|
E|--555555-111111-------1---------------5----------------------|
G#|-555555-111111---1-------1-------5-------5-----5\4-1/3------|
C#|-555555-111111-1---1---1---1---5---5---5---5-----------0-1~-|
PM  XXXXXX XXXXXX X   X   X   X   X   X   X   X 

Verses (ALL VERSES)
B|-----------------------------------------------------|
F#|----------------------------------------------------|
B|-----------------------------------------------------|
E|-----------------------------------------------------|
G#|----------------------------------------------------|
C#|-5555555555/8888888888\11111111111/3h4-000000000000-|
PM  XXXXXXXXXX XXXXXXXXXX XXXXXXXXXXX     XXXXXXXXXXXX

Chorus
B|------------------------------------------------------------------------|
F#|-----------------------------------------------------------------------|
B|------------------------------------------------------------------------|
E|------------------------------------------------------------------------|
G#|-0-3-5-6-5-3-5-0-3-5-6-5-1-3-0-5-6-6-5-3-5-0-3-5-6-5-3-5-0-3-5-6-5-1-3-|
C#|-0-3-5-6-5-3-5-0-3-5-6-5-1-3-0-5-6-6-5-3-5-0-3-5-6-5-3-5-0-3-5-6-5-1-3-|



************************************


| /   slide up
| \   slide down
| h   hammer-on
| p   pull-off
| ~   vibrato
| +   harmonic
| x   Mute note
| b   Bend
| pb  Pre-bend
| br  Bend release
| pbr Pre-bend release
| brb Bend release bend

************************************    

Added On January 24th, 2015

SHARE

Comments

blog comments powered by Disqus

ADVERTISEMENT