Washya Tabs

Scatter My Ashes

1 versions

TAB

            -------------------------------------------------------------------------------
                             Scatter My Ashes - Washya
-------------------------------------------------------------------------------
Tabbed by:
E-mail:

Tuning: Drop B (BF#BEG#C#)
Intro
B|-----------------------------------------------------------------------------------------|
F#|----------------------------------------------------------------------------------------|
B|-----------------------------------------------------------------------------------------|
E|-----------------------------------------------------3-----------------------------------|
G#|-00-3\2-00-3\2-00-3\2-00-/6-00-3\2-00-3\2-00-3\2-00-1-00-3\2-00-3\2-00-3\2-00-/666555111|
C#|-00-3\2-00-3\2-00-3\2-00-/6-00-3\2-00-3\2-00-3\2-00---00-3\2-00-3\2-00-3\2-00-/666555111|

Part 2 (distortion)
B|--------------------------------|
F#|-------------------------------|
B|--------------------------------|
E|--------------------------------|
G#|-------------------------------|
C#|-1-00-1-000-000-1-00-1-00-1-000|x2

Verses (heavy cool riff)
B|--------------------------------------------------------------------------|
F#|-------------------------------------------------------------------------|
B|--------------------------------------------------------------------------|
E|-----------8\7---------3-2-------5\4-------------5\4---------3-2----------|
G#|-00-3\2-0-6\5-0-6-5-0-1-0-0-3\2-3\2-5\4-0-4\3-0-3\2-0-3\2-0-1-0-0-655-511|
C#|-00-3\2-0-----0-6-5-0-----0-3\2-----5\4-0-4\3-0-----0-3\2-0-----0-655-511|x7
PM  **     *     *     *     *             *     *     *     *     *  

Chorus
B|-----------------------------------------------------------------------------------------------------------|
F#|----------------------------------------------------------------------------------------------------------|
B|-----------------------------------------------------------------------------------------------------------|
E|-----------------------------------------------------------------------------------------------------------|
G#|---------------------------------3-3-3-3-3-3-3-3-3-5-5-5-5-5-5-5-5-------------------------8-8-8-8-8-8-8-8|
C#|-0-0-0-0-0-0-0-0-2-2-2-2-2-2-2-2-----------------------------------6-5-6-5/8-8-8-8-8-8-8-8----------------|

B|----------------------------------------------------------------------------------------------------------|
F#|---------------------------------------------------------------------------------------------------------|
B|----------------------------------------------------------------------------------------------------------|
E|----------------------------------------------------------------------------------------------------------|
G#|-5-5-5-5-5-5-5-5-6-6-6-6-6-6-6-6-5-5-3-3---------------------------------/5-5-5-5-5-5-5-5-8-8-8-8-8-8-8-8|
C#|-----------------------------------------4-4-4-4-4-4-4-4-1-1-1-1-1-1-1-1---------------------------------|

B|---------|
F#|--------|
B|---------|
E|---------|
G#|-8-6-1-3|
C#|-8-6-1-3|x5


Intro
B|-----------------------------------------------------------------------------------------|
F#|----------------------------------------------------------------------------------------|
B|-----------------------------------------------------------------------------------------|
E|-----------------------------------------------------3-----------------------------------|
G#|-00-3\2-00-3\2-00-3\2-00-/6-00-3\2-00-3\2-00-3\2-00-1-00-3\2-00-3\2-00-3\2-00-/666555111|
C#|-00-3\2-00-3\2-00-3\2-00-/6-00-3\2-00-3\2-00-3\2-00---00-3\2-00-3\2-00-3\2-00-/666555111|

Part 2 (distortion)
B|--------------------------------|
F#|-------------------------------|
B|--------------------------------|
E|--------------------------------|
G#|-------------------------------|
C#|-1-00-1-000-000-1-00-1-00-1-000|x2

Verses (heavy cool riff)
B|--------------------------------------------------------------------------|
F#|-------------------------------------------------------------------------|
B|--------------------------------------------------------------------------|
E|-----------8\7---------3-2-------5\4-------------5\4---------3-2----------|
G#|-00-3\2-0-6\5-0-6-5-0-1-0-0-3\2-3\2-5\4-0-4\3-0-3\2-0-3\2-0-1-0-0-655-511|
C#|-00-3\2-0-----0-6-5-0-----0-3\2-----5\4-0-4\3-0-----0-3\2-0-----0-655-511|x7
PM  **     *     *     *     *             *     *     *     *     *  

Chorus
B|-----------------------------------------------------------------------------------------------------------|
F#|----------------------------------------------------------------------------------------------------------|
B|-----------------------------------------------------------------------------------------------------------|
E|-----------------------------------------------------------------------------------------------------------|
G#|---------------------------------3-3-3-3-3-3-3-3-3-5-5-5-5-5-5-5-5-------------------------8-8-8-8-8-8-8-8|
C#|-0-0-0-0-0-0-0-0-2-2-2-2-2-2-2-2-----------------------------------6-5-6-5/8-8-8-8-8-8-8-8----------------|

B|----------------------------------------------------------------------------------------------------------|
F#|---------------------------------------------------------------------------------------------------------|
B|----------------------------------------------------------------------------------------------------------|
E|----------------------------------------------------------------------------------------------------------|
G#|-5-5-5-5-5-5-5-5-6-6-6-6-6-6-6-6-5-5-3-3---------------------------------/5-5-5-5-5-5-5-5-8-8-8-8-8-8-8-8|
C#|-----------------------------------------4-4-4-4-4-4-4-4-1-1-1-1-1-1-1-1---------------------------------|

B|---------|
F#|--------|
B|---------|
E|---------|
G#|-8-6-1-3|
C#|-8-6-1-3|x5



************************************

| /   slide up
| \   slide down
| h   hammer-on
| p   pull-off
| ~   vibrato
| +   harmonic
| x   Mute note
| b   Bend
| pb  Pre-bend
| br  Bend release
| pbr Pre-bend release
| brb Bend release bend

************************************    

Added On January 11th, 2015

SHARE

Comments

blog comments powered by Disqus

ADVERTISEMENT