Washya Tabs

Second Rate

1 versions

TAB

            ------------------------------------------------------------------------------
                         Second Rate - Washya
------------------------------------------------------------------------------
Tuning: Standard (EBGDAE)
Intro
E|-----------------------------------------------------------------|
B|-----------------------------------------------------------------|
G|-----------------------------------------------------------------|
D|-44------------------44-----------------44-----------------4/5-2-|
A|-44------------------44-----------------44-----------------4/5-2-|
E|-22-2222222222222222-22-222222222222222-22-222222222222222-2/3-0-|
PM    ****************    ***************    *************** 

Verses
E|---------------------------------------------------|
B|---------------------------------------------------|
G|---------------------------------------------------|
D|---------------3---3---------------5---5-----------|
A|-444-3333------1---1-444-3333------3---3-444-333-2-|
E|-222-1111-xxxx---x---222-1111-xxxx---x---222-111-0-|
PM *** ****            *** ****            *** *** 

Chorus
E|-----------------------------------------------------|
B|-----------------------------------------------------|
G|-----------------------------------------------------|
D|-4-444-444-7-777-777---------------------101010-99---|
A|-2-222-222-5-555-555-5-555-555-3-333-333-8-8-8--77-5-|
E|---------------------3-333-333-1-111-111-----------3-|    

Added On December 16th, 2013

SHARE

Comments

blog comments powered by Disqus

ADVERTISEMENT