Washya Tabs

Shawn The Dead

1 versions

TAB

            -------------------------------------------------------------------------------
          Shawn The Dead - Washya
-------------------------------------------------------------------------------
TUNING: Drop C (DAFCGC)
Intro
F|-------------------------------------------------|
A|-------------------------------------------------|
D|-------------------------------------------------|
C|-------------------------------------------------|
G|-------------------------------------------------|
C|-6-3-0-3-0-3-6-3-0-3-0-3-6-3-0-3-0-3-6-3-0-3-0-3-|
PM * * * * * * * * * * * * * * * * * * * * * * * *  x3

Main Riff/Chorus (Heavy Distortion)
F|----------------------------------------------------|
A|----------------------------------------------------|
D|----------------------------------------------------|
C|----------------------------------------------------|
G|-6-3-0-3-0-3-6-3-0-3-0-3-6-3-0-3-0-3-666666/8\6-5-3-|
C|-6-3-0-3-0-3-6-3-0-3-0-3-6-3-0-3-0-3-666666/8\6-5-3-|

Verses (Heavy distortion and palm muting) 
F|-------------------------------------------------------------|
A|-------------------------------------------------------------|
D|-------------------------------------------------------------|
C|-------------------------------------------------------------|
G|-666-333-666-888-666-333-666-888-666-333-666-888-333-555-666-|
C|-666-333-666-888-666-333-666-888-666-333-666-888-333-555-666-|
PM *** *** *** *** *** *** *** *** *** *** *** *** *** *** ***

Outro - play fast (Fade out)
F|---------------------------------------------|
A|---------------------------------------------|
D|---------------------------------------------|
C|---------------------------------------------|
G|---3---------4-3-2-----------3-2-0-----------|
C|-6---5-4-3-6-------5-4-2-4-5-------3-6-5-3-0-|
PM * * * * * * * * * * * * * * * * * * * * * *    

Added On December 16th, 2013

SHARE

Comments

blog comments powered by Disqus

ADVERTISEMENT