Washya Tabs

Shenanigans

1 versions

TAB

            -----------------------------------------------------------------------------
           Shenanigans - Washya
-----------------------------------------------------------------------------
Tuning: Standard (ebgDAE)
Intro
e|--------------------------------|
b|--------------------------------|
g|----------2-4-2---2-------------|
D|-4444-----------4---4-3-1-------|
A|-2222-2-4-----------------333-2-|
E|------0-2-----------------111-0-|
PM                          ***

Verses
e|-------------------------|
b|-------------------------|
g|-------------------------|
D|-------4-4-2-5-4---------|
A|-444-2-2-2-0-3-2-2-444-5-|
E|-222-0-----------0-222-3-|
PM **    * *   * * * ***

Chorus
e|--------------------------------------------------------|
b|--------------------------------------------------------|
g|--------------------------------------------------------|
D|-11-10--------11-10--------7h9p7----------4-2-4---------|
A|-9--8-9-------9--8-11------------9-7------2-0-2-4-3-2---|
E|------7-5555-------9--7777---------5-5555-------2-1-0---|
PM        ****          ****           ****

Solo                     (play this section very fast 15 times)
e|----------------------|--------------------------------------------12-15~-|
b|----------------------|---------10---------------------10-12----10--------|
g|----------------------|---10-12----12-10---------10-12-------11-----------|
D|-11-11p9/--9h11-11p9~/|-11----------------11-9-11-------------------------|
A|----------------------|---------------------------------------------------|
E|----------------------|---------------------------------------------------|    

Added On December 16th, 2013

SHARE

Comments

blog comments powered by Disqus

ADVERTISEMENT