Washya Tabs

Shifting Lives

1 versions

TAB

            -------------------------------------------------------------------------------
                            Shifting Lives - Washya
-------------------------------------------------------------------------------
Tabbed by:
E-mail:

Tuning: Drop B (BF#BEG#C#)
B|---------------------------------------------------------------------------------------|
F#|--------------------------------------------------------------------------------------|
B|---------------------------------------------------------------------------------------|
E|----------4-----4-4-----------4-----4-4---------------7-----7-7---------------7-----7-7|
G#|-5-4-3-4-4-----4-4-5-4-3-4-5-4-----4-4-5-4-3/8-7-6-7-7-----7-7-----8-7-6-7-8-7-----7-7|
C#|-5-4-3-4---444-----5-4-3-4-5---444-----5-4-3/8-7-6-7---777-----777-8-7-6-7-8---777----|
PM  X X X X   XXX     X X X X X   XXX     X X X X X X X   XXX     XXX X X X X X   XXX

verses
B|-------------------------------------------------------------------------------------|
F#|--------------12--------------------------------------------------------------------|
B|------------10----10h13-----------12h13p12h13-10h12p10h12p10h12----------------------|
E|-------------------------------------------------------------------------------------|
G#|-00--0-1-0-------------00--0-1-0-------------------------------00--0-1-0-5-4-3-0-1-0|
C#|-00--0-1-0-------------00--0-1-0-------------------------------00--0-1-0-5-4-3-0-1-0|
PM  XX  X   X             XX  X   X                               XX  X X X X X X X X 

Chorus
B|---------------------------------------------------------|
F#|--------------------------------------------------------|
B|---------------------------------------------------------|
E|---------------------------------------------------------|
G#|-5-2---5-2---8-7-------------4-1---4-1---4-3-1-3/8-5-5-2|
C#|-5-2-x-5-2-x-8-7-7h10p7h10-x-4-1-x-4-1-x-4-3-1-3/8-5-5-2|




************************************

| /   slide up
| \   slide down
| h   hammer-on
| p   pull-off
| ~   vibrato
| +   harmonic
| x   Mute note
| b   Bend
| pb  Pre-bend
| br  Bend release
| pbr Pre-bend release
| brb Bend release bend

************************************    

Added On January 14th, 2015

SHARE

Comments

blog comments powered by Disqus

ADVERTISEMENT