Washya Tabs

Sickly Duties

1 versions

TAB

            ---------------------
Artist: Washya
Tuning: Drop D 
Song: Sickly Duties
---------------------
Intro
E|-------------------| |-------------------|
B|-------------------| |-------------------|
G|-------------------| |-------------------|
D|-------------------| |-------------------|
A|-------------------| |-0h3h5h6p5p3-3-6-5-|
D|-drums-for-4-beats-| |-------------3-6-5-|x3

Verses
E|-------------------------|
B|-------------------------|
G|-------------------------|
D|-------------------5/777-|
A|-000-00-0-3-/6-5-1-3/555-|
D|-000-00-0-3-/6-5-1-------|x3
PM XXX XX X 

Chorus
E|---------------------------------------------------|
B|---------------------------------------------------|
G|---------------------------------------------------|
D|---------------------------------------------------|
A|-----5p3p0-----/8~---6~---5---6---8---5---555555-2-|
D|-000-------3p0-----0----0---0---0---0---0-555555-2-|x5
PM XXX               X    X   X   X   X   X 

Solo
E|-12b-/15-13-12----12----------------------12h13-----12h13-----/17p15p14h15p1412--------------------------|
B|-13b-----------15----13-15-14h15p14h15p14-------14b-------14b-------------------15p13p12-----------------|
G|-----------------------------------------------------------------------------------------15p13p12--------|
D|--------------------------------------------------------------------------------------------------10h12~~|
A|---------------------------------------------------------------------------------------------------------|
D|---------------------------------------------------------------------------------------------------------|    

Added On October 10th, 2014

SHARE

Comments

blog comments powered by Disqus

ADVERTISEMENT